  0
SECTION
  2
HEADER
  9
$ACADVER
  1
AC1015
  9
$ACADMAINTVER
 70
     6
  9
$DWGCODEPAGE
  3
ANSI_1254
  9
$INSBASE
 10
0.0
 20
0.0
 30
0.0
  9
$EXTMIN
 10
0.0
 20
0.0
 30
0.0
  9
$EXTMAX
 10
279.4
 20
215.9
 30
0.0
  9
$LIMMIN
 10
0.0
 20
0.0
  9
$LIMMAX
 10
279.4
 20
215.9
  9
$ORTHOMODE
 70
     0
  9
$REGENMODE
 70
     1
  9
$FILLMODE
 70
     1
  9
$QTEXTMODE
 70
     0
  9
$MIRRTEXT
 70
     1
  9
$LTSCALE
 40
1.0
  9
$ATTMODE
 70
     1
  9
$TEXTSIZE
 40
3.5
  9
$TRACEWID
 40
1.0
  9
$TEXTSTYLE
  7
Standard
  9
$CLAYER
  8
0
  9
$CELTYPE
  6
ByLayer
  9
$CECOLOR
 62
   256
  9
$CELTSCALE
 40
1.0
  9
$DISPSILH
 70
     0
  9
$DIMSCALE
 40
1.0
  9
$DIMASZ
 40
3.5
  9
$DIMEXO
 40
1.0
  9
$DIMDLI
 40
3.75
  9
$DIMRND
 40
0.0
  9
$DIMDLE
 40
0.0
  9
$DIMEXE
 40
1.0
  9
$DIMTP
 40
0.0
  9
$DIMTM
 40
0.0
  9
$DIMTXT
 40
3.5
  9
$DIMCEN
 40
2.5
  9
$DIMTSZ
 40
0.0
  9
$DIMTOL
 70
     0
  9
$DIMLIM
 70
     0
  9
$DIMTIH
 70
     1
  9
$DIMTOH
 70
     1
  9
$DIMSE1
 70
     0
  9
$DIMSE2
 70
     0
  9
$DIMTAD
 70
     1
  9
$DIMZIN
 70
     0
  9
$DIMBLK
  1

  9
$DIMASO
 70
     1
  9
$DIMSHO
 70
     1
  9
$DIMPOST
  1

  9
$DIMAPOST
  1

  9
$DIMALT
 70
     0
  9
$DIMALTD
 70
     3
  9
$DIMALTF
 40
0.0393700787
  9
$DIMLFAC
 40
1.0
  9
$DIMTOFL
 70
     1
  9
$DIMTVP
 40
0.0
  9
$DIMTIX
 70
     0
  9
$DIMSOXD
 70
     0
  9
$DIMSAH
 70
     0
  9
$DIMBLK1
  1

  9
$DIMBLK2
  1

  9
$DIMSTYLE
  2
ISO-25
  9
$DIMCLRD
 70
     0
  9
$DIMCLRE
 70
     0
  9
$DIMCLRT
 70
     0
  9
$DIMTFAC
 40
1.0
  9
$DIMGAP
 40
1.524
  9
$DIMJUST
 70
     0
  9
$DIMSD1
 70
     0
  9
$DIMSD2
 70
     0
  9
$DIMTOLJ
 70
     0
  9
$DIMTZIN
 70
     0
  9
$DIMALTZ
 70
     0
  9
$DIMALTTZ
 70
     0
  9
$DIMUPT
 70
     0
  9
$DIMDEC
 70
     2
  9
$DIMTDEC
 70
     2
  9
$DIMALTU
 70
     2
  9
$DIMALTTD
 70
     3
  9
$DIMTXSTY
  7
Standard
  9
$DIMAUNIT
 70
     0
  9
$DIMADEC
 70
     2
  9
$DIMALTRND
 40
0.0
  9
$DIMAZIN
 70
     0
  9
$DIMDSEP
 70
    44
  9
$DIMATFIT
 70
     3
  9
$DIMFRAC
 70
     0
  9
$DIMLDRBLK
  1

  9
$DIMLUNIT
 70
     2
  9
$DIMLWD
 70
    -2
  9
$DIMLWE
 70
    -2
  9
$DIMTMOVE
 70
     0
  9
$LUNITS
 70
     2
  9
$LUPREC
 70
     2
  9
$SKETCHINC
 40
1.0
  9
$FILLETRAD
 40
10.0
  9
$AUNITS
 70
     0
  9
$AUPREC
 70
     2
  9
$MENU
  1
.
  9
$ELEVATION
 40
0.0
  9
$PELEVATION
 40
0.0
  9
$THICKNESS
 40
0.0
  9
$LIMCHECK
 70
     0
  9
$CHAMFERA
 40
0.0
  9
$CHAMFERB
 40
0.0
  9
$CHAMFERC
 40
0.0
  9
$CHAMFERD
 40
0.0
  9
$SKPOLY
 70
     0
  9
$TDCREATE
 40
2459741.592459132
  9
$TDUCREATE
 40
2459741.467459132
  9
$TDUPDATE
 40
2459741.592461088
  9
$TDUUPDATE
 40
2459741.467461088
  9
$TDINDWG
 40
0.0000000116
  9
$TDUSRTIMER
 40
0.0000000116
  9
$USRTIMER
 70
     1
  9
$ANGBASE
 50
0.0
  9
$ANGDIR
 70
     0
  9
$PDMODE
 70
     0
  9
$PDSIZE
 40
-1.0
  9
$PLINEWID
 40
0.0
  9
$SPLFRAME
 70
     0
  9
$SPLINETYPE
 70
     6
  9
$SPLINESEGS
 70
     8
  9
$HANDSEED
  5
162
  9
$SURFTAB1
 70
     6
  9
$SURFTAB2
 70
     6
  9
$SURFTYPE
 70
     6
  9
$SURFU
 70
     6
  9
$SURFV
 70
     6
  9
$UCSBASE
  2

  9
$UCSNAME
  2

  9
$UCSORG
 10
0.0
 20
0.0
 30
0.0
  9
$UCSXDIR
 10
1.0
 20
0.0
 30
0.0
  9
$UCSYDIR
 10
0.0
 20
1.0
 30
0.0
  9
$UCSORTHOREF
  2

  9
$UCSORTHOVIEW
 70
     0
  9
$UCSORGTOP
 10
0.0
 20
0.0
 30
0.0
  9
$UCSORGBOTTOM
 10
0.0
 20
0.0
 30
0.0
  9
$UCSORGLEFT
 10
0.0
 20
0.0
 30
0.0
  9
$UCSORGRIGHT
 10
0.0
 20
0.0
 30
0.0
  9
$UCSORGFRONT
 10
0.0
 20
0.0
 30
0.0
  9
$UCSORGBACK
 10
0.0
 20
0.0
 30
0.0
  9
$PUCSBASE
  2

  9
$PUCSNAME
  2

  9
$PUCSORG
 10
0.0
 20
0.0
 30
0.0
  9
$PUCSXDIR
 10
1.0
 20
0.0
 30
0.0
  9
$PUCSYDIR
 10
0.0
 20
1.0
 30
0.0
  9
$PUCSORTHOREF
  2

  9
$PUCSORTHOVIEW
 70
     0
  9
$PUCSORGTOP
 10
0.0
 20
0.0
 30
0.0
  9
$PUCSORGBOTTOM
 10
0.0
 20
0.0
 30
0.0
  9
$PUCSORGLEFT
 10
0.0
 20
0.0
 30
0.0
  9
$PUCSORGRIGHT
 10
0.0
 20
0.0
 30
0.0
  9
$PUCSORGFRONT
 10
0.0
 20
0.0
 30
0.0
  9
$PUCSORGBACK
 10
0.0
 20
0.0
 30
0.0
  9
$USERI1
 70
     0
  9
$USERI2
 70
     0
  9
$USERI3
 70
     0
  9
$USERI4
 70
     0
  9
$USERI5
 70
     0
  9
$USERR1
 40
0.0
  9
$USERR2
 40
0.0
  9
$USERR3
 40
0.0
  9
$USERR4
 40
0.0
  9
$USERR5
 40
0.0
  9
$WORLDVIEW
 70
     1
  9
$SHADEDGE
 70
     3
  9
$SHADEDIF
 70
    70
  9
$TILEMODE
 70
     1
  9
$MAXACTVP
 70
    64
  9
$PINSBASE
 10
0.0
 20
0.0
 30
0.0
  9
$PLIMCHECK
 70
     0
  9
$PEXTMIN
 10
1.0000000000E+20
 20
1.0000000000E+20
 30
1.0000000000E+20
  9
$PEXTMAX
 10
-1.0000000000E+20
 20
-1.0000000000E+20
 30
-1.0000000000E+20
  9
$PLIMMIN
 10
0.0
 20
0.0
  9
$PLIMMAX
 10
420.0
 20
297.0
  9
$UNITMODE
 70
     0
  9
$VISRETAIN
 70
     1
  9
$PLINEGEN
 70
     0
  9
$PSLTSCALE
 70
     1
  9
$TREEDEPTH
 70
  3020
  9
$CMLSTYLE
  2
Standard
  9
$CMLJUST
 70
     0
  9
$CMLSCALE
 40
20.0
  9
$PROXYGRAPHICS
 70
     1
  9
$MEASUREMENT
 70
     1
  9
$CELWEIGHT
370
    -1
  9
$ENDCAPS
280
     0
  9
$JOINSTYLE
280
     0
  9
$LWDISPLAY
290
     1
  9
$INSUNITS
 70
     4
  9
$HYPERLINKBASE
  1

  9
$STYLESHEET
  1

  9
$XEDIT
290
     1
  9
$CEPSNTYPE
380
     0
  9
$PSTYLEMODE
290
     1
  9
$FINGERPRINTGUID
  2
{0a958071-e7fd-4975-ab67-bda2012e6c76}
  9
$VERSIONGUID
  2
{FAEB1C32-E019-11D5-929B-00C0DF256EC4}
  9
$EXTNAMES
290
     1
  9
$PSVPSCALE
 40
0.0
  9
$OLESTARTUP
290
     0
  0
ENDSEC
  0
SECTION
  2
CLASSES
  0
CLASS
  1
ACDBDICTIONARYWDFLT
  2
AcDbDictionaryWithDefault
  3
ObjectDBX Classes
 90
        0
280
     0
281
     0
  0
CLASS
  1
VISUALSTYLE
  2
AcDbVisualStyle
  3
ObjectDBX Classes
 90
     4095
280
     0
281
     0
  0
CLASS
  1
MATERIAL
  2
AcDbMaterial
  3
ObjectDBX Classes
 90
     1153
280
     0
281
     0
  0
CLASS
  1
SCALE
  2
AcDbScale
  3
ObjectDBX Classes
 90
     1153
280
     0
281
     0
  0
CLASS
  1
TABLESTYLE
  2
AcDbTableStyle
  3
ObjectDBX Classes
 90
     4095
280
     0
281
     0
  0
CLASS
  1
MLEADERSTYLE
  2
AcDbMLeaderStyle
  3
ACDB_MLEADERSTYLE_CLASS
 90
     4095
280
     0
281
     0
  0
CLASS
  1
SUN
  2
AcDbSun
  3
SCENEOE
 90
     1153
280
     0
281
     0
  0
CLASS
  1
ACDBPLACEHOLDER
  2
AcDbPlaceHolder
  3
ObjectDBX Classes
 90
        0
280
     0
281
     0
  0
CLASS
  1
LAYOUT
  2
AcDbLayout
  3
ObjectDBX Classes
 90
        0
280
     0
281
     0
  0
ENDSEC
  0
SECTION
  2
TABLES
  0
TABLE
  2
VPORT
  5
8
330
0
100
AcDbSymbolTable
 70
     1
  0
VPORT
  5
29
330
8
100
AcDbSymbolTableRecord
100
AcDbViewportTableRecord
  2
*Active
 70
     0
 10
0.0
 20
0.0
 11
1.0
 21
1.0
 12
139.7
 22
107.95
 13
0.0
 23
0.0
 14
10.0
 24
10.0
 15
10.0
 25
10.0
 16
0.0
 26
0.0
 36
1.0
 17
0.0
 27
0.0
 37
0.0
 40
215.9
 41
1.2941176471
 42
50.0
 43
0.0
 44
0.0
 50
0.0
 51
0.0
 71
     0
 72
  2000
 73
     1
 74
     3
 75
     0
 76
     0
 77
     0
 78
     0
281
     0
 65
     1
110
0.0
120
0.0
130
0.0
111
1.0
121
0.0
131
0.0
112
0.0
122
1.0
132
0.0
 79
     0
146
0.0
  0
ENDTAB
  0
TABLE
  2
LTYPE
  5
5
330
0
100
AcDbSymbolTable
 70
     6
  0
LTYPE
  5
14
330
5
100
AcDbSymbolTableRecord
100
AcDbLinetypeTableRecord
  2
ByBlock
 70
     0
  3

 72
    65
 73
     0
 40
0.0
  0
LTYPE
  5
15
330
5
100
AcDbSymbolTableRecord
100
AcDbLinetypeTableRecord
  2
ByLayer
 70
     0
  3

 72
    65
 73
     0
 40
0.0
  0
LTYPE
  5
16
330
5
100
AcDbSymbolTableRecord
100
AcDbLinetypeTableRecord
  2
Continuous
 70
     0
  3
Solid line
 72
    65
 73
     0
 40
0.0
  0
LTYPE
  5
6E
330
5
100
AcDbSymbolTableRecord
100
AcDbLinetypeTableRecord
  2
HIDDEN
 70
     0
  3
Hidden __ __ __ __ __ __ __ __ __ __ __ __ __ __
 72
    65
 73
     2
 40
1.905
 49
1.27
 74
     0
 49
-0.635
 74
     0
  0
LTYPE
  5
6F
330
5
100
AcDbSymbolTableRecord
100
AcDbLinetypeTableRecord
  2
PHANTOM
 70
     0
  3
Phantom ______  __  __  ______  __  __  ______
 72
    65
 73
     6
 40
12.7
 49
6.35
 74
     0
 49
-1.27
 74
     0
 49
1.27
 74
     0
 49
-1.27
 74
     0
 49
1.27
 74
     0
 49
-1.27
 74
     0
  0
LTYPE
  5
70
330
5
100
AcDbSymbolTableRecord
100
AcDbLinetypeTableRecord
  2
CENTER
 70
     0
  3
Center ____ _ ____ _ ____ _ ____ _ ____ _ ____
 72
    65
 73
     4
 40
10.16
 49
6.35
 74
     0
 49
-1.27
 74
     0
 49
1.27
 74
     0
 49
-1.27
 74
     0
  0
LTYPE
  5
71
330
5
100
AcDbSymbolTableRecord
100
AcDbLinetypeTableRecord
  2
CENTERX2
 70
     0
  3
Center (2x) ________  __  ________  __  _____
 72
    65
 73
     4
 40
20.32
 49
12.7
 74
     0
 49
-2.54
 74
     0
 49
2.54
 74
     0
 49
-2.54
 74
     0
  0
LTYPE
  5
72
330
5
100
AcDbSymbolTableRecord
100
AcDbLinetypeTableRecord
  2
DOT2
 70
     0
  3
Dot (.5x) ........................................
 72
    65
 73
     2
 40
0.635
 49
0.0
 74
     0
 49
-0.635
 74
     0
  0
ENDTAB
  0
TABLE
  2
LAYER
  5
2
330
0
100
AcDbSymbolTable
 70
    17
  0
LAYER
  5
10
330
2
100
AcDbSymbolTableRecord
100
AcDbLayerTableRecord
  2
0
 70
     0
 62
     7
  6
Continuous
370
    -3
390
F
  0
LAYER
  5
73
330
2
100
AcDbSymbolTableRecord
100
AcDbLayerTableRecord
  2
FORMAT
 70
     0
 62
     7
  6
Continuous
370
    -3
390
F
  0
LAYER
  5
74
330
2
100
AcDbSymbolTableRecord
100
AcDbLayerTableRecord
  2
YARDIMCI_GEOMETRI
 70
     0
 62
    -6
  6
Continuous
290
     0
370
    -3
390
F
  0
LAYER
  5
75
330
2
100
AcDbSymbolTableRecord
100
AcDbLayerTableRecord
  2
SAYFA_CERCEVESI
 70
     0
 62
     7
  6
Continuous
370
    25
390
F
  0
LAYER
  5
76
330
2
100
AcDbSymbolTableRecord
100
AcDbLayerTableRecord
  2
ANTET
 70
     0
 62
     7
  6
Continuous
370
    -3
390
F
  0
LAYER
  5
77
330
2
100
AcDbSymbolTableRecord
100
AcDbLayerTableRecord
  2
OLCU
 70
     0
 62
   150
  6
Continuous
370
    -3
390
F
  0
LAYER
  5
78
330
2
100
AcDbSymbolTableRecord
100
AcDbLayerTableRecord
  2
METIN
 70
     0
 62
    96
  6
Continuous
370
    -3
390
F
  0
LAYER
  5
79
330
2
100
AcDbSymbolTableRecord
100
AcDbLayerTableRecord
  2
BALON
 70
     0
 62
     5
  6
Continuous
370
    -3
390
F
  0
LAYER
  5
7A
330
2
100
AcDbSymbolTableRecord
100
AcDbLayerTableRecord
  2
VURGU
 70
     0
 62
     7
  6
Continuous
370
    -3
390
F
  0
LAYER
  5
7B
330
2
100
AcDbSymbolTableRecord
100
AcDbLayerTableRecord
  2
SILIK
 70
     0
 62
     7
  6
Continuous
370
    -3
390
F
  0
LAYER
  5
7C
330
2
100
AcDbSymbolTableRecord
100
AcDbLayerTableRecord
  2
MODEL
 70
     0
 62
     7
  6
Continuous
370
    -3
390
F
  0
LAYER
  5
7D
330
2
100
AcDbSymbolTableRecord
100
AcDbLayerTableRecord
  2
DETAYLANDıRMA
 70
     0
 62
   190
  6
Continuous
370
    -3
390
F
  0
LAYER
  5
7E
330
2
100
AcDbSymbolTableRecord
100
AcDbLayerTableRecord
  2
TOLERANS
 70
     0
 62
   230
  6
Continuous
370
    -3
390
F
  0
LAYER
  5
7F
330
2
100
AcDbSymbolTableRecord
100
AcDbLayerTableRecord
  2
MERKEZ_CIZGILERI
 70
     0
 62
    30
  6
Continuous
370
    -3
390
F
  0
LAYER
  5
80
330
2
100
AcDbSymbolTableRecord
100
AcDbLayerTableRecord
  2
KESIT-DETAY_CIZGILERI
 70
     0
 62
     7
  6
Continuous
370
    -3
390
F
  0
LAYER
  5
81
330
2
100
AcDbSymbolTableRecord
100
AcDbLayerTableRecord
  2
\U+041E\U+0421\U+0415\U+0412\U+042B\U+0415
 70
     0
 62
     7
  6
Continuous
370
    -3
390
F
  0
LAYER
  5
82
330
2
100
AcDbSymbolTableRecord
100
AcDbLayerTableRecord
  2
\U+0412\U+041E\U+0414\U+042F\U+041D\U+042B\U+0415_\U+0417\U+041D\U+0410\U+041A\U+0418
 70
     0
 62
    11
  6
Continuous
370
    -3
390
F
  0
ENDTAB
  0
TABLE
  2
STYLE
  5
3
330
0
100
AcDbSymbolTable
 70
     1
  0
STYLE
  5
11
330
3
100
AcDbSymbolTableRecord
100
AcDbTextStyleTableRecord
  2
Standard
 70
     0
 40
0.0
 41
1.0
 50
0.0
 71
     0
 42
3.5
  3
txt
  4

  0
ENDTAB
  0
TABLE
  2
VIEW
  5
6
330
0
100
AcDbSymbolTable
 70
     0
  0
ENDTAB
  0
TABLE
  2
UCS
  5
7
330
0
100
AcDbSymbolTable
 70
     0
  0
ENDTAB
  0
TABLE
  2
APPID
  5
9
330
0
100
AcDbSymbolTable
 70
     1
  0
APPID
  5
12
330
9
100
AcDbSymbolTableRecord
100
AcDbRegAppTableRecord
  2
ACAD
 70
     0
  0
ENDTAB
  0
TABLE
  2
DIMSTYLE
  5
A
330
0
100
AcDbSymbolTable
 70
     1
100
AcDbDimStyleTable
  0
DIMSTYLE
105
27
330
A
100
AcDbSymbolTableRecord
100
AcDbDimStyleTableRecord
  2
ISO-25
 70
     0
 41
2.5
 42
0.625
 43
3.75
 44
1.25
 73
     0
 74
     0
 77
     1
 78
     8
140
2.5
141
2.5
143
0.0393700787
147
0.625
171
     3
172
     1
178
     0
271
     2
272
     2
274
     3
278
    44
283
     0
284
     8
340
11
  0
ENDTAB
  0
TABLE
  2
BLOCK_RECORD
  5
1
330
0
100
AcDbSymbolTable
 70
     9
  0
BLOCK_RECORD
  5
1F
330
1
100
AcDbSymbolTableRecord
100
AcDbBlockTableRecord
  2
*Model_Space
340
22
  0
BLOCK_RECORD
  5
1B
330
1
100
AcDbSymbolTableRecord
100
AcDbBlockTableRecord
  2
*Paper_Space
340
1E
  0
BLOCK_RECORD
  5
23
330
1
100
AcDbSymbolTableRecord
100
AcDbBlockTableRecord
  2
*Paper_Space0
340
26
  0
BLOCK_RECORD
  5
97
330
1
100
AcDbSymbolTableRecord
100
AcDbBlockTableRecord
  2
SW_CENTERMARKSYMBOL_0
340
0
102
{BLKREFS
331
A2
102
}
  0
BLOCK_RECORD
  5
A3
330
1
100
AcDbSymbolTableRecord
100
AcDbBlockTableRecord
  2
SW_CENTERMARKSYMBOL_1
340
0
102
{BLKREFS
331
AE
102
}
  0
BLOCK_RECORD
  5
AF
330
1
100
AcDbSymbolTableRecord
100
AcDbBlockTableRecord
  2
SW_CENTERMARKSYMBOL_2
340
0
102
{BLKREFS
331
BA
102
}
  0
BLOCK_RECORD
  5
BB
330
1
100
AcDbSymbolTableRecord
100
AcDbBlockTableRecord
  2
SW_CENTERMARKSYMBOL_3
340
0
102
{BLKREFS
331
C6
102
}
  0
BLOCK_RECORD
  5
C7
330
1
100
AcDbSymbolTableRecord
100
AcDbBlockTableRecord
  2
SW_CENTERMARKSYMBOL_4
340
0
102
{BLKREFS
331
D2
102
}
  0
BLOCK_RECORD
  5
D3
330
1
100
AcDbSymbolTableRecord
100
AcDbBlockTableRecord
  2
SW_CENTERMARKSYMBOL_5
340
0
102
{BLKREFS
331
DE
102
}
  0
BLOCK_RECORD
  5
DF
330
1
100
AcDbSymbolTableRecord
100
AcDbBlockTableRecord
  2
SW_CENTERMARKSYMBOL_6
340
0
102
{BLKREFS
331
EA
102
}
  0
BLOCK_RECORD
  5
EB
330
1
100
AcDbSymbolTableRecord
100
AcDbBlockTableRecord
  2
SW_CENTERMARKSYMBOL_7
340
0
102
{BLKREFS
331
F6
102
}
  0
ENDTAB
  0
ENDSEC
  0
SECTION
  2
BLOCKS
  0
BLOCK
  5
20
330
1F
100
AcDbEntity
  8
0
100
AcDbBlockBegin
  2
*Model_Space
 70
     0
 10
0.0
 20
0.0
 30
0.0
  3
*Model_Space
  1

  0
ENDBLK
  5
21
330
1F
100
AcDbEntity
  8
0
100
AcDbBlockEnd
  0
BLOCK
  5
1C
330
1B
100
AcDbEntity
 67
     1
  8
0
100
AcDbBlockBegin
  2
*Paper_Space
 70
     0
 10
0.0
 20
0.0
 30
0.0
  3
*Paper_Space
  1

  0
ENDBLK
  5
1D
330
1B
100
AcDbEntity
 67
     1
  8
0
100
AcDbBlockEnd
  0
BLOCK
  5
24
330
23
100
AcDbEntity
  8
0
100
AcDbBlockBegin
  2
*Paper_Space0
 70
     0
 10
0.0
 20
0.0
 30
0.0
  3
*Paper_Space0
  1

  0
ENDBLK
  5
25
330
23
100
AcDbEntity
  8
0
100
AcDbBlockEnd
  0
BLOCK
  5
98
330
97
100
AcDbEntity
  8
0
100
AcDbBlockBegin
  2
SW_CENTERMARKSYMBOL_0
 70
     0
 10
0.0
 20
0.0
 30
0.0
  3
SW_CENTERMARKSYMBOL_0
  1

  0
LINE
  5
9A
330
97
100
AcDbEntity
  8
FORMAT
 62
     0
100
AcDbLine
 10
0.0
 20
0.0
 30
0.0
 11
0.0
 21
2.5
 31
0.0
  0
LINE
  5
9B
330
97
100
AcDbEntity
  8
FORMAT
 62
     0
100
AcDbLine
 10
0.0
 20
0.0
 30
0.0
 11
-2.5
 21
0.0
 31
0.0
  0
LINE
  5
9C
330
97
100
AcDbEntity
  8
FORMAT
 62
     0
100
AcDbLine
 10
0.0
 20
0.0
 30
0.0
 11
0.0
 21
-2.5
 31
0.0
  0
LINE
  5
9D
330
97
100
AcDbEntity
  8
FORMAT
 62
     0
100
AcDbLine
 10
0.0
 20
0.0
 30
0.0
 11
2.5
 21
0.0
 31
0.0
  0
LINE
  5
9E
330
97
100
AcDbEntity
  8
FORMAT
 62
     0
100
AcDbLine
 10
0.0
 20
5.0
 30
0.0
 11
0.0
 21
114.5
 31
0.0
  0
LINE
  5
9F
330
97
100
AcDbEntity
  8
FORMAT
 62
     0
100
AcDbLine
 10
-5.0
 20
0.0
 30
0.0
 11
-114.5
 21
0.0
 31
0.0
  0
LINE
  5
A0
330
97
100
AcDbEntity
  8
FORMAT
 62
     0
100
AcDbLine
 10
0.0
 20
-5.0
 30
0.0
 11
0.0
 21
-114.5
 31
0.0
  0
LINE
  5
A1
330
97
100
AcDbEntity
  8
FORMAT
 62
     0
100
AcDbLine
 10
5.0
 20
0.0
 30
0.0
 11
114.5
 21
0.0
 31
0.0
  0
ENDBLK
  5
99
330
97
100
AcDbEntity
  8
0
100
AcDbBlockEnd
  0
BLOCK
  5
A4
330
A3
100
AcDbEntity
  8
0
100
AcDbBlockBegin
  2
SW_CENTERMARKSYMBOL_1
 70
     0
 10
0.0
 20
0.0
 30
0.0
  3
SW_CENTERMARKSYMBOL_1
  1

  0
LINE
  5
A6
330
A3
100
AcDbEntity
  8
FORMAT
 62
     0
100
AcDbLine
 10
0.0
 20
0.0
 30
0.0
 11
0.0
 21
2.5
 31
0.0
  0
LINE
  5
A7
330
A3
100
AcDbEntity
  8
FORMAT
 62
     0
100
AcDbLine
 10
0.0
 20
0.0
 30
0.0
 11
-2.5
 21
0.0
 31
0.0
  0
LINE
  5
A8
330
A3
100
AcDbEntity
  8
FORMAT
 62
     0
100
AcDbLine
 10
0.0
 20
0.0
 30
0.0
 11
0.0
 21
-2.5
 31
0.0
  0
LINE
  5
A9
330
A3
100
AcDbEntity
  8
FORMAT
 62
     0
100
AcDbLine
 10
0.0
 20
0.0
 30
0.0
 11
2.5
 21
0.0
 31
0.0
  0
LINE
  5
AA
330
A3
100
AcDbEntity
  8
FORMAT
 62
     0
100
AcDbLine
 10
0.0
 20
5.0
 30
0.0
 11
0.0
 21
11.5
 31
0.0
  0
LINE
  5
AB
330
A3
100
AcDbEntity
  8
FORMAT
 62
     0
100
AcDbLine
 10
-5.0
 20
0.0
 30
0.0
 11
-11.5
 21
0.0
 31
0.0
  0
LINE
  5
AC
330
A3
100
AcDbEntity
  8
FORMAT
 62
     0
100
AcDbLine
 10
0.0
 20
-5.0
 30
0.0
 11
0.0
 21
-11.5
 31
0.0
  0
LINE
  5
AD
330
A3
100
AcDbEntity
  8
FORMAT
 62
     0
100
AcDbLine
 10
5.0
 20
0.0
 30
0.0
 11
11.5
 21
0.0
 31
0.0
  0
ENDBLK
  5
A5
330
A3
100
AcDbEntity
  8
0
100
AcDbBlockEnd
  0
BLOCK
  5
B0
330
AF
100
AcDbEntity
  8
0
100
AcDbBlockBegin
  2
SW_CENTERMARKSYMBOL_2
 70
     0
 10
0.0
 20
0.0
 30
0.0
  3
SW_CENTERMARKSYMBOL_2
  1

  0
LINE
  5
B2
330
AF
100
AcDbEntity
  8
FORMAT
 62
     0
100
AcDbLine
 10
0.0
 20
0.0
 30
0.0
 11
0.0
 21
2.5
 31
0.0
  0
LINE
  5
B3
330
AF
100
AcDbEntity
  8
FORMAT
 62
     0
100
AcDbLine
 10
0.0
 20
0.0
 30
0.0
 11
-2.5
 21
0.0
 31
0.0
  0
LINE
  5
B4
330
AF
100
AcDbEntity
  8
FORMAT
 62
     0
100
AcDbLine
 10
0.0
 20
0.0
 30
0.0
 11
0.0
 21
-2.5
 31
0.0
  0
LINE
  5
B5
330
AF
100
AcDbEntity
  8
FORMAT
 62
     0
100
AcDbLine
 10
0.0
 20
0.0
 30
0.0
 11
2.5
 21
0.0
 31
0.0
  0
LINE
  5
B6
330
AF
100
AcDbEntity
  8
FORMAT
 62
     0
100
AcDbLine
 10
0.0
 20
5.0
 30
0.0
 11
0.0
 21
11.5
 31
0.0
  0
LINE
  5
B7
330
AF
100
AcDbEntity
  8
FORMAT
 62
     0
100
AcDbLine
 10
-5.0
 20
0.0
 30
0.0
 11
-11.5
 21
0.0
 31
0.0
  0
LINE
  5
B8
330
AF
100
AcDbEntity
  8
FORMAT
 62
     0
100
AcDbLine
 10
0.0
 20
-5.0
 30
0.0
 11
0.0
 21
-11.5
 31
0.0
  0
LINE
  5
B9
330
AF
100
AcDbEntity
  8
FORMAT
 62
     0
100
AcDbLine
 10
5.0
 20
0.0
 30
0.0
 11
11.5
 21
0.0
 31
0.0
  0
ENDBLK
  5
B1
330
AF
100
AcDbEntity
  8
0
100
AcDbBlockEnd
  0
BLOCK
  5
BC
330
BB
100
AcDbEntity
  8
0
100
AcDbBlockBegin
  2
SW_CENTERMARKSYMBOL_3
 70
     0
 10
0.0
 20
0.0
 30
0.0
  3
SW_CENTERMARKSYMBOL_3
  1

  0
LINE
  5
BE
330
BB
100
AcDbEntity
  8
FORMAT
 62
     0
100
AcDbLine
 10
0.0
 20
0.0
 30
0.0
 11
0.0
 21
2.5
 31
0.0
  0
LINE
  5
BF
330
BB
100
AcDbEntity
  8
FORMAT
 62
     0
100
AcDbLine
 10
0.0
 20
0.0
 30
0.0
 11
-2.5
 21
0.0
 31
0.0
  0
LINE
  5
C0
330
BB
100
AcDbEntity
  8
FORMAT
 62
     0
100
AcDbLine
 10
0.0
 20
0.0
 30
0.0
 11
0.0
 21
-2.5
 31
0.0
  0
LINE
  5
C1
330
BB
100
AcDbEntity
  8
FORMAT
 62
     0
100
AcDbLine
 10
0.0
 20
0.0
 30
0.0
 11
2.5
 21
0.0
 31
0.0
  0
LINE
  5
C2
330
BB
100
AcDbEntity
  8
FORMAT
 62
     0
100
AcDbLine
 10
0.0
 20
5.0
 30
0.0
 11
0.0
 21
11.5
 31
0.0
  0
LINE
  5
C3
330
BB
100
AcDbEntity
  8
FORMAT
 62
     0
100
AcDbLine
 10
-5.0
 20
0.0
 30
0.0
 11
-11.5
 21
0.0
 31
0.0
  0
LINE
  5
C4
330
BB
100
AcDbEntity
  8
FORMAT
 62
     0
100
AcDbLine
 10
0.0
 20
-5.0
 30
0.0
 11
0.0
 21
-11.5
 31
0.0
  0
LINE
  5
C5
330
BB
100
AcDbEntity
  8
FORMAT
 62
     0
100
AcDbLine
 10
5.0
 20
0.0
 30
0.0
 11
11.5
 21
0.0
 31
0.0
  0
ENDBLK
  5
BD
330
BB
100
AcDbEntity
  8
0
100
AcDbBlockEnd
  0
BLOCK
  5
C8
330
C7
100
AcDbEntity
  8
0
100
AcDbBlockBegin
  2
SW_CENTERMARKSYMBOL_4
 70
     0
 10
0.0
 20
0.0
 30
0.0
  3
SW_CENTERMARKSYMBOL_4
  1

  0
LINE
  5
CA
330
C7
100
AcDbEntity
  8
FORMAT
 62
     0
100
AcDbLine
 10
0.0
 20
0.0
 30
0.0
 11
0.0
 21
2.5
 31
0.0
  0
LINE
  5
CB
330
C7
100
AcDbEntity
  8
FORMAT
 62
     0
100
AcDbLine
 10
0.0
 20
0.0
 30
0.0
 11
-2.5
 21
0.0
 31
0.0
  0
LINE
  5
CC
330
C7
100
AcDbEntity
  8
FORMAT
 62
     0
100
AcDbLine
 10
0.0
 20
0.0
 30
0.0
 11
0.0
 21
-2.5
 31
0.0
  0
LINE
  5
CD
330
C7
100
AcDbEntity
  8
FORMAT
 62
     0
100
AcDbLine
 10
0.0
 20
0.0
 30
0.0
 11
2.5
 21
0.0
 31
0.0
  0
LINE
  5
CE
330
C7
100
AcDbEntity
  8
FORMAT
 62
     0
100
AcDbLine
 10
0.0
 20
5.0
 30
0.0
 11
0.0
 21
11.5
 31
0.0
  0
LINE
  5
CF
330
C7
100
AcDbEntity
  8
FORMAT
 62
     0
100
AcDbLine
 10
-5.0
 20
0.0
 30
0.0
 11
-11.5
 21
0.0
 31
0.0
  0
LINE
  5
D0
330
C7
100
AcDbEntity
  8
FORMAT
 62
     0
100
AcDbLine
 10
0.0
 20
-5.0
 30
0.0
 11
0.0
 21
-11.5
 31
0.0
  0
LINE
  5
D1
330
C7
100
AcDbEntity
  8
FORMAT
 62
     0
100
AcDbLine
 10
5.0
 20
0.0
 30
0.0
 11
11.5
 21
0.0
 31
0.0
  0
ENDBLK
  5
C9
330
C7
100
AcDbEntity
  8
0
100
AcDbBlockEnd
  0
BLOCK
  5
D4
330
D3
100
AcDbEntity
  8
0
100
AcDbBlockBegin
  2
SW_CENTERMARKSYMBOL_5
 70
     0
 10
0.0
 20
0.0
 30
0.0
  3
SW_CENTERMARKSYMBOL_5
  1

  0
LINE
  5
D6
330
D3
100
AcDbEntity
  8
FORMAT
 62
     0
100
AcDbLine
 10
0.0
 20
0.0
 30
0.0
 11
0.0
 21
2.5
 31
0.0
  0
LINE
  5
D7
330
D3
100
AcDbEntity
  8
FORMAT
 62
     0
100
AcDbLine
 10
0.0
 20
0.0
 30
0.0
 11
-2.5
 21
0.0
 31
0.0
  0
LINE
  5
D8
330
D3
100
AcDbEntity
  8
FORMAT
 62
     0
100
AcDbLine
 10
0.0
 20
0.0
 30
0.0
 11
0.0
 21
-2.5
 31
0.0
  0
LINE
  5
D9
330
D3
100
AcDbEntity
  8
FORMAT
 62
     0
100
AcDbLine
 10
0.0
 20
0.0
 30
0.0
 11
2.5
 21
0.0
 31
0.0
  0
LINE
  5
DA
330
D3
100
AcDbEntity
  8
FORMAT
 62
     0
100
AcDbLine
 10
0.0
 20
5.0
 30
0.0
 11
0.0
 21
12.5
 31
0.0
  0
LINE
  5
DB
330
D3
100
AcDbEntity
  8
FORMAT
 62
     0
100
AcDbLine
 10
-5.0
 20
0.0
 30
0.0
 11
-12.5
 21
0.0
 31
0.0
  0
LINE
  5
DC
330
D3
100
AcDbEntity
  8
FORMAT
 62
     0
100
AcDbLine
 10
0.0
 20
-5.0
 30
0.0
 11
0.0
 21
-12.5
 31
0.0
  0
LINE
  5
DD
330
D3
100
AcDbEntity
  8
FORMAT
 62
     0
100
AcDbLine
 10
5.0
 20
0.0
 30
0.0
 11
12.5
 21
0.0
 31
0.0
  0
ENDBLK
  5
D5
330
D3
100
AcDbEntity
  8
0
100
AcDbBlockEnd
  0
BLOCK
  5
E0
330
DF
100
AcDbEntity
  8
0
100
AcDbBlockBegin
  2
SW_CENTERMARKSYMBOL_6
 70
     0
 10
0.0
 20
0.0
 30
0.0
  3
SW_CENTERMARKSYMBOL_6
  1

  0
LINE
  5
E2
330
DF
100
AcDbEntity
  8
FORMAT
 62
     0
100
AcDbLine
 10
0.0
 20
0.0
 30
0.0
 11
0.0
 21
2.5
 31
0.0
  0
LINE
  5
E3
330
DF
100
AcDbEntity
  8
FORMAT
 62
     0
100
AcDbLine
 10
0.0
 20
0.0
 30
0.0
 11
-2.5
 21
0.0
 31
0.0
  0
LINE
  5
E4
330
DF
100
AcDbEntity
  8
FORMAT
 62
     0
100
AcDbLine
 10
0.0
 20
0.0
 30
0.0
 11
0.0
 21
-2.5
 31
0.0
  0
LINE
  5
E5
330
DF
100
AcDbEntity
  8
FORMAT
 62
     0
100
AcDbLine
 10
0.0
 20
0.0
 30
0.0
 11
2.5
 21
0.0
 31
0.0
  0
LINE
  5
E6
330
DF
100
AcDbEntity
  8
FORMAT
 62
     0
100
AcDbLine
 10
0.0
 20
5.0
 30
0.0
 11
0.0
 21
12.5
 31
0.0
  0
LINE
  5
E7
330
DF
100
AcDbEntity
  8
FORMAT
 62
     0
100
AcDbLine
 10
-5.0
 20
0.0
 30
0.0
 11
-12.5
 21
0.0
 31
0.0
  0
LINE
  5
E8
330
DF
100
AcDbEntity
  8
FORMAT
 62
     0
100
AcDbLine
 10
0.0
 20
-5.0
 30
0.0
 11
0.0
 21
-12.5
 31
0.0
  0
LINE
  5
E9
330
DF
100
AcDbEntity
  8
FORMAT
 62
     0
100
AcDbLine
 10
5.0
 20
0.0
 30
0.0
 11
12.5
 21
0.0
 31
0.0
  0
ENDBLK
  5
E1
330
DF
100
AcDbEntity
  8
0
100
AcDbBlockEnd
  0
BLOCK
  5
EC
330
EB
100
AcDbEntity
  8
0
100
AcDbBlockBegin
  2
SW_CENTERMARKSYMBOL_7
 70
     0
 10
0.0
 20
0.0
 30
0.0
  3
SW_CENTERMARKSYMBOL_7
  1

  0
LINE
  5
EE
330
EB
100
AcDbEntity
  8
FORMAT
 62
     0
100
AcDbLine
 10
0.0
 20
0.0
 30
0.0
 11
0.0
 21
2.5
 31
0.0
  0
LINE
  5
EF
330
EB
100
AcDbEntity
  8
FORMAT
 62
     0
100
AcDbLine
 10
0.0
 20
0.0
 30
0.0
 11
-2.5
 21
0.0
 31
0.0
  0
LINE
  5
F0
330
EB
100
AcDbEntity
  8
FORMAT
 62
     0
100
AcDbLine
 10
0.0
 20
0.0
 30
0.0
 11
0.0
 21
-2.5
 31
0.0
  0
LINE
  5
F1
330
EB
100
AcDbEntity
  8
FORMAT
 62
     0
100
AcDbLine
 10
0.0
 20
0.0
 30
0.0
 11
2.5
 21
0.0
 31
0.0
  0
LINE
  5
F2
330
EB
100
AcDbEntity
  8
FORMAT
 62
     0
100
AcDbLine
 10
0.0
 20
5.0
 30
0.0
 11
0.0
 21
12.5
 31
0.0
  0
LINE
  5
F3
330
EB
100
AcDbEntity
  8
FORMAT
 62
     0
100
AcDbLine
 10
-5.0
 20
0.0
 30
0.0
 11
-12.5
 21
0.0
 31
0.0
  0
LINE
  5
F4
330
EB
100
AcDbEntity
  8
FORMAT
 62
     0
100
AcDbLine
 10
0.0
 20
-5.0
 30
0.0
 11
0.0
 21
-12.5
 31
0.0
  0
LINE
  5
F5
330
EB
100
AcDbEntity
  8
FORMAT
 62
     0
100
AcDbLine
 10
5.0
 20
0.0
 30
0.0
 11
12.5
 21
0.0
 31
0.0
  0
ENDBLK
  5
ED
330
EB
100
AcDbEntity
  8
0
100
AcDbBlockEnd
  0
ENDSEC
  0
SECTION
  2
ENTITIES
  0
CIRCLE
  5
83
330
1F
100
AcDbEntity
  8
0
  6
Continuous
 62
     7
370
    25
100
AcDbCircle
 10
49.6357889998
 20
107.7719043092
 30
0.0
 40
9.999999999999993
  0
CIRCLE
  5
84
330
1F
100
AcDbEntity
  8
0
  6
Continuous
 62
     7
370
    25
100
AcDbCircle
 10
203.2753993066
 20
44.1322940024
 30
0.0
 40
10.0
  0
CIRCLE
  5
85
330
1F
100
AcDbEntity
  8
0
  6
Continuous
 62
     7
370
    25
100
AcDbCircle
 10
203.2753993066
 20
171.411514616
 30
0.0
 40
9.999999999999972
  0
CIRCLE
  5
86
330
1F
100
AcDbEntity
  8
0
  6
Continuous
 62
     7
370
    25
100
AcDbCircle
 10
139.6357889998
 20
197.7719043092
 30
0.0
 40
10.0
  0
CIRCLE
  5
87
330
1F
100
AcDbEntity
  8
0
  6
Continuous
 62
     7
370
    25
100
AcDbCircle
 10
139.6357889998
 20
107.7719043092
 30
0.0
 40
111.0
  0
CIRCLE
  5
88
330
1F
100
AcDbEntity
  8
0
  6
Continuous
 62
     7
370
    25
100
AcDbCircle
 10
139.6357889998
 20
107.7719043092
 30
0.0
 40
65.0
  0
CIRCLE
  5
89
330
1F
100
AcDbEntity
  8
0
  6
Continuous
 62
     7
370
    25
100
AcDbCircle
 10
139.6357889998
 20
17.7719043092
 30
0.0
 40
9.999999999999972
  0
CIRCLE
  5
8A
330
1F
100
AcDbEntity
  8
0
  6
Continuous
 62
     7
370
    25
100
AcDbCircle
 10
229.6357889998
 20
107.7719043092
 30
0.0
 40
10.0
  0
CIRCLE
  5
8B
330
1F
100
AcDbEntity
  8
0
  6
Continuous
 62
     7
370
    25
100
AcDbCircle
 10
75.9961786931
 20
44.1322940024
 30
0.0
 40
10.0
  0
CIRCLE
  5
8C
330
1F
100
AcDbEntity
  8
0
  6
Continuous
 62
     7
370
    25
100
AcDbCircle
 10
75.9961786931
 20
171.411514616
 30
0.0
 40
10.0
  0
CIRCLE
  5
8D
330
1F
100
AcDbEntity
  8
0
  6
Continuous
 62
     7
370
    25
100
AcDbCircle
 10
139.6357889998
 20
17.7719043092
 30
0.0
 40
8.999999999999972
  0
CIRCLE
  5
8E
330
1F
100
AcDbEntity
  8
0
  6
Continuous
 62
     7
370
    25
100
AcDbCircle
 10
139.6357889998
 20
107.7719043092
 30
0.0
 40
64.0
  0
CIRCLE
  5
8F
330
1F
100
AcDbEntity
  8
0
  6
Continuous
 62
     7
370
    25
100
AcDbCircle
 10
139.6357889998
 20
107.7719043092
 30
0.0
 40
112.0
  0
CIRCLE
  5
90
330
1F
100
AcDbEntity
  8
0
  6
Continuous
 62
     7
370
    25
100
AcDbCircle
 10
139.6357889998
 20
197.7719043092
 30
0.0
 40
9.0
  0
CIRCLE
  5
91
330
1F
100
AcDbEntity
  8
0
  6
Continuous
 62
     7
370
    25
100
AcDbCircle
 10
203.2753993066
 20
171.411514616
 30
0.0
 40
8.999999999999972
  0
CIRCLE
  5
92
330
1F
100
AcDbEntity
  8
0
  6
Continuous
 62
     7
370
    25
100
AcDbCircle
 10
75.9961786931
 20
171.411514616
 30
0.0
 40
9.0
  0
CIRCLE
  5
93
330
1F
100
AcDbEntity
  8
0
  6
Continuous
 62
     7
370
    25
100
AcDbCircle
 10
75.9961786931
 20
44.1322940024
 30
0.0
 40
9.0
  0
CIRCLE
  5
94
330
1F
100
AcDbEntity
  8
0
  6
Continuous
 62
     7
370
    25
100
AcDbCircle
 10
229.6357889998
 20
107.7719043092
 30
0.0
 40
9.0
  0
CIRCLE
  5
95
330
1F
100
AcDbEntity
  8
0
  6
Continuous
 62
     7
370
    25
100
AcDbCircle
 10
49.6357889998
 20
107.7719043092
 30
0.0
 40
8.999999999999993
  0
CIRCLE
  5
96
330
1F
100
AcDbEntity
  8
0
  6
Continuous
 62
     7
370
    25
100
AcDbCircle
 10
203.2753993066
 20
44.1322940024
 30
0.0
 40
9.0
  0
INSERT
  5
A2
330
1F
100
AcDbEntity
  8
FORMAT
 62
     7
100
AcDbBlockReference
  2
SW_CENTERMARKSYMBOL_0
 10
139.6357889998
 20
107.7719043092
 30
0.0
  0
INSERT
  5
AE
330
1F
100
AcDbEntity
  8
FORMAT
 62
     7
100
AcDbBlockReference
  2
SW_CENTERMARKSYMBOL_1
 10
139.6357889998
 20
197.7719043092
 30
0.0
  0
INSERT
  5
BA
330
1F
100
AcDbEntity
  8
FORMAT
 62
     7
100
AcDbBlockReference
  2
SW_CENTERMARKSYMBOL_2
 10
203.2753993066
 20
171.411514616
 30
0.0
  0
INSERT
  5
C6
330
1F
100
AcDbEntity
  8
FORMAT
 62
     7
100
AcDbBlockReference
  2
SW_CENTERMARKSYMBOL_3
 10
229.6357889998
 20
107.7719043092
 30
0.0
  0
INSERT
  5
D2
330
1F
100
AcDbEntity
  8
FORMAT
 62
     7
100
AcDbBlockReference
  2
SW_CENTERMARKSYMBOL_4
 10
203.2753993066
 20
44.1322940024
 30
0.0
  0
INSERT
  5
DE
330
1F
100
AcDbEntity
  8
FORMAT
 62
     7
100
AcDbBlockReference
  2
SW_CENTERMARKSYMBOL_5
 10
75.9961786931
 20
171.411514616
 30
0.0
  0
INSERT
  5
EA
330
1F
100
AcDbEntity
  8
FORMAT
 62
     7
100
AcDbBlockReference
  2
SW_CENTERMARKSYMBOL_6
 10
49.6357889998
 20
107.7719043092
 30
0.0
  0
INSERT
  5
F6
330
1F
100
AcDbEntity
  8
FORMAT
 62
     7
100
AcDbBlockReference
  2
SW_CENTERMARKSYMBOL_7
 10
75.9961786931
 20
44.1322940024
 30
0.0
  0
LINE
  5
F7
330
1F
100
AcDbEntity
  8
0
  6
Continuous
 62
     7
370
    25
100
AcDbLine
 10
-123.328143514
 20
219.7719043092
 30
0.0
 11
-141.328143514
 21
219.7719043092
 31
0.0
  0
LINE
  5
F8
330
1F
100
AcDbEntity
  8
0
  6
Continuous
 62
     7
370
    25
100
AcDbLine
 10
-141.328143514
 20
-4.2280956908
 30
0.0
 11
-123.328143514
 21
-4.2280956908
 31
0.0
  0
ARC
  5
F9
330
1F
100
AcDbEntity
  8
0
  6
Continuous
 62
     7
370
    25
100
AcDbCircle
 10
-123.328143514
 20
-3.2280956908
 30
0.0
 40
1.000000000000014
100
AcDbArc
 50
270.0
 51
0.0
  0
ARC
  5
FA
330
1F
100
AcDbEntity
  8
0
  6
Continuous
 62
     7
370
    25
100
AcDbCircle
 10
-123.328143514
 20
218.7719043092
 30
0.0
 40
1.000000000000014
100
AcDbArc
 50
0.0
 51
90.0
  0
ARC
  5
FB
330
1F
100
AcDbEntity
  8
0
  6
Continuous
 62
     7
370
    25
100
AcDbCircle
 10
-141.328143514
 20
-3.2280956908
 30
0.0
 40
1.000000000000001
100
AcDbArc
 50
180.0
 51
270.0
  0
ARC
  5
FC
330
1F
100
AcDbEntity
  8
0
  6
Continuous
 62
     7
370
    25
100
AcDbCircle
 10
-141.328143514
 20
218.7719043092
 30
0.0
 40
1.0
100
AcDbArc
 50
90.0
 51
180.0
  0
LINE
  5
FD
330
1F
100
AcDbEntity
  8
0
  6
Continuous
 62
     7
370
    25
100
AcDbLine
 10
-122.328143514
 20
107.7719043092
 30
0.0
 11
-122.328143514
 21
-3.2280956908
 31
0.0
  0
LINE
  5
FE
330
1F
100
AcDbEntity
  8
0
  6
Continuous
 62
     7
370
    25
100
AcDbLine
 10
-122.328143514
 20
218.7719043092
 30
0.0
 11
-122.328143514
 21
107.7719043092
 31
0.0
  0
LINE
  5
FF
330
1F
100
AcDbEntity
  8
0
  6
Continuous
 62
     7
370
    25
100
AcDbLine
 10
-142.328143514
 20
107.7719043092
 30
0.0
 11
-142.328143514
 21
218.7719043092
 31
0.0
  0
LINE
  5
100
330
1F
100
AcDbEntity
  8
0
  6
Continuous
 62
     7
370
    25
100
AcDbLine
 10
-142.328143514
 20
-3.2280956908
 30
0.0
 11
-142.328143514
 21
107.7719043092
 31
0.0
  0
LINE
  5
101
330
1F
100
AcDbEntity
  8
0
  6
Continuous
 62
     1
370
    25
100
AcDbLine
 10
-141.328143514
 20
107.7719043092
 30
0.0
 11
-141.328143514
 21
-4.2280956908
 31
0.0
  0
LINE
  5
102
330
1F
100
AcDbEntity
  8
0
  6
Continuous
 62
     1
370
    25
100
AcDbLine
 10
-141.328143514
 20
219.7719043092
 30
0.0
 11
-141.328143514
 21
107.7719043092
 31
0.0
  0
LINE
  5
103
330
1F
100
AcDbEntity
  8
0
  6
Continuous
 62
     1
370
    25
100
AcDbLine
 10
-123.328143514
 20
107.7719043092
 30
0.0
 11
-123.328143514
 21
219.7719043092
 31
0.0
  0
LINE
  5
104
330
1F
100
AcDbEntity
  8
0
  6
Continuous
 62
     1
370
    25
100
AcDbLine
 10
-123.328143514
 20
-4.2280956908
 30
0.0
 11
-123.328143514
 21
107.7719043092
 31
0.0
  0
LINE
  5
105
330
1F
100
AcDbEntity
  8
0
  6
Continuous
 62
     7
370
    25
100
AcDbLine
 10
385.5447397917
 20
-4.2280956908
 30
0.0
 11
403.5447397917
 21
-4.2280956908
 31
0.0
  0
LINE
  5
106
330
1F
100
AcDbEntity
  8
0
  6
Continuous
 62
     7
370
    25
100
AcDbLine
 10
403.5447397917
 20
219.7719043092
 30
0.0
 11
385.5447397917
 21
219.7719043092
 31
0.0
  0
ARC
  5
107
330
1F
100
AcDbEntity
  8
0
  6
Continuous
 62
     7
370
    25
100
AcDbCircle
 10
385.5447397917
 20
218.7719043092
 30
0.0
 40
1.0
100
AcDbArc
 50
90.0
 51
180.0
  0
ARC
  5
108
330
1F
100
AcDbEntity
  8
0
  6
Continuous
 62
     7
370
    25
100
AcDbCircle
 10
385.5447397917
 20
-3.2280956908
 30
0.0
 40
1.000000000000001
100
AcDbArc
 50
180.0
 51
270.0
  0
ARC
  5
109
330
1F
100
AcDbEntity
  8
0
  6
Continuous
 62
     7
370
    25
100
AcDbCircle
 10
403.5447397917
 20
218.7719043092
 30
0.0
 40
1.0
100
AcDbArc
 50
0.0
 51
90.0
  0
ARC
  5
10A
330
1F
100
AcDbEntity
  8
0
  6
Continuous
 62
     7
370
    25
100
AcDbCircle
 10
403.5447397917
 20
-3.2280956908
 30
0.0
 40
1.000000000000001
100
AcDbArc
 50
270.0
 51
0.0
  0
LINE
  5
10B
330
1F
100
AcDbEntity
  8
0
  6
Continuous
 62
     7
370
    25
100
AcDbLine
 10
384.5447397917
 20
-3.2280956908
 30
0.0
 11
384.5447397917
 21
218.7719043092
 31
0.0
  0
LINE
  5
10C
330
1F
100
AcDbEntity
  8
0
  6
Continuous
 62
     7
370
    25
100
AcDbLine
 10
404.5447397917
 20
218.7719043092
 30
0.0
 11
404.5447397917
 21
-3.2280956908
 31
0.0
  0
LINE
  5
10D
330
1F
100
AcDbEntity
  8
0
  6
Continuous
 62
     1
370
    25
100
AcDbLine
 10
403.5447397917
 20
-4.2280956908
 30
0.0
 11
403.5447397917
 21
219.7719043092
 31
0.0
  0
LINE
  5
10E
330
1F
100
AcDbEntity
  8
0
  6
Continuous
 62
     1
370
    25
100
AcDbLine
 10
385.5447397917
 20
219.7719043092
 30
0.0
 11
385.5447397917
 21
-4.2280956908
 31
0.0
  0
LINE
  5
10F
330
1F
100
AcDbEntity
  8
0
  6
Continuous
 62
     7
370
    25
100
AcDbLine
 10
251.6357889998
 20
346.6066805445
 30
0.0
 11
251.6357889998
 21
364.6066805445
 31
0.0
  0
LINE
  5
110
330
1F
100
AcDbEntity
  8
0
  6
Continuous
 62
     7
370
    25
100
AcDbLine
 10
27.6357889998
 20
364.6066805445
 30
0.0
 11
27.6357889998
 21
346.6066805445
 31
0.0
  0
ARC
  5
111
330
1F
100
AcDbEntity
  8
0
  6
Continuous
 62
     7
370
    25
100
AcDbCircle
 10
28.6357889998
 20
346.6066805445
 30
0.0
 40
1.0
100
AcDbArc
 50
180.0
 51
270.0
  0
ARC
  5
112
330
1F
100
AcDbEntity
  8
0
  6
Continuous
 62
     7
370
    25
100
AcDbCircle
 10
250.6357889998
 20
346.6066805445
 30
0.0
 40
1.0
100
AcDbArc
 50
270.0
 51
0.0
  0
ARC
  5
113
330
1F
100
AcDbEntity
  8
0
  6
Continuous
 62
     7
370
    25
100
AcDbCircle
 10
28.6357889998
 20
364.6066805445
 30
0.0
 40
1.0
100
AcDbArc
 50
90.0
 51
180.0
  0
ARC
  5
114
330
1F
100
AcDbEntity
  8
0
  6
Continuous
 62
     7
370
    25
100
AcDbCircle
 10
250.6357889998
 20
364.6066805445
 30
0.0
 40
1.0
100
AcDbArc
 50
0.0
 51
90.0
  0
LINE
  5
115
330
1F
100
AcDbEntity
  8
0
  6
Continuous
 62
     7
370
    25
100
AcDbLine
 10
250.6357889998
 20
345.6066805445
 30
0.0
 11
28.6357889998
 21
345.6066805445
 31
0.0
  0
LINE
  5
116
330
1F
100
AcDbEntity
  8
0
  6
Continuous
 62
     7
370
    25
100
AcDbLine
 10
28.635789
 20
365.6066805445
 30
0.0
 11
250.6357889998
 21
365.6066805445
 31
0.0
  0
LINE
  5
117
330
1F
100
AcDbEntity
  8
0
  6
Continuous
 62
     1
370
    25
100
AcDbLine
 10
251.6357889998
 20
364.6066805445
 30
0.0
 11
27.6357889998
 21
364.6066805445
 31
0.0
  0
LINE
  5
118
330
1F
100
AcDbEntity
  8
0
  6
Continuous
 62
     1
370
    25
100
AcDbLine
 10
27.6357889998
 20
346.6066805445
 30
0.0
 11
251.6357889998
 21
346.6066805445
 31
0.0
  0
LINE
  5
119
330
1F
100
AcDbEntity
  8
0
  6
Continuous
 62
     7
370
    25
100
AcDbLine
 10
27.6357889998
 20
-152.265319009
 30
0.0
 11
27.6357889998
 21
-170.265319009
 31
0.0
  0
LINE
  5
11A
330
1F
100
AcDbEntity
  8
0
  6
Continuous
 62
     7
370
    25
100
AcDbLine
 10
251.6357889998
 20
-170.265319009
 30
0.0
 11
251.6357889998
 21
-152.265319009
 31
0.0
  0
ARC
  5
11B
330
1F
100
AcDbEntity
  8
0
  6
Continuous
 62
     7
370
    25
100
AcDbCircle
 10
250.6357889998
 20
-152.265319009
 30
0.0
 40
1.0
100
AcDbArc
 50
0.0
 51
90.0
  0
ARC
  5
11C
330
1F
100
AcDbEntity
  8
0
  6
Continuous
 62
     7
370
    25
100
AcDbCircle
 10
28.6357889998
 20
-152.265319009
 30
0.0
 40
1.0
100
AcDbArc
 50
90.0
 51
180.0
  0
ARC
  5
11D
330
1F
100
AcDbEntity
  8
0
  6
Continuous
 62
     7
370
    25
100
AcDbCircle
 10
250.6357889998
 20
-170.265319009
 30
0.0
 40
1.0
100
AcDbArc
 50
270.0
 51
0.0
  0
ARC
  5
11E
330
1F
100
AcDbEntity
  8
0
  6
Continuous
 62
     7
370
    25
100
AcDbCircle
 10
28.6357889998
 20
-170.265319009
 30
0.0
 40
1.0
100
AcDbArc
 50
180.0
 51
270.0
  0
LINE
  5
11F
330
1F
100
AcDbEntity
  8
0
  6
Continuous
 62
     7
370
    25
100
AcDbLine
 10
28.635789
 20
-151.265319009
 30
0.0
 11
250.6357889998
 21
-151.265319009
 31
0.0
  0
LINE
  5
120
330
1F
100
AcDbEntity
  8
0
  6
Continuous
 62
     7
370
    25
100
AcDbLine
 10
250.6357889998
 20
-171.265319009
 30
0.0
 11
28.6357889998
 21
-171.265319009
 31
0.0
  0
LINE
  5
121
330
1F
100
AcDbEntity
  8
0
  6
Continuous
 62
     1
370
    25
100
AcDbLine
 10
27.6357889998
 20
-170.265319009
 30
0.0
 11
251.6357889998
 21
-170.265319009
 31
0.0
  0
LINE
  5
122
330
1F
100
AcDbEntity
  8
0
  6
Continuous
 62
     1
370
    25
100
AcDbLine
 10
251.6357889998
 20
-152.265319009
 30
0.0
 11
27.6357889998
 21
-152.265319009
 31
0.0
  0
SPLINE
  5
123
330
1F
100
AcDbEntity
  8
0
  6
Continuous
 62
     7
370
    25
100
AcDbSpline
210
0.0
220
0.0
230
1.0
 70
     8
 71
     3
 72
    76
 73
    72
 74
     0
 42
0.00000001
 43
0.00000001
 40
0.0
 40
0.0
 40
0.0
 40
0.0
 40
0.0004293278133705
 40
0.0150630012749995
 40
0.0297092931939463
 40
0.0443699624596662
 40
0.0590457410895494
 40
0.0737364405456543
 40
0.0884411359848006
 40
0.1031583854461663
 40
0.1178864463681899
 40
0.1326234631660251
 40
0.1473676123228869
 40
0.1621172022167355
 40
0.1768707321597178
 40
0.1916269188128496
 40
0.2063846990512759
 40
0.2211432175449353
 40
0.2359016667259061
 40
0.2506595416985131
 40
0.2654165127891037
 40
0.2801723554026689
 40
0.2949269295729307
 40
0.3096801624744288
 40
0.3244320338284414
 40
0.3391825639594876
 40
0.3539318041782153
 40
0.3686798291463244
 40
0.3834267308935302
 40
0.3981726141885927
 40
0.412917593005183
 40
0.4276617878627809
 40
0.4424053238592741
 40
0.4571483292439851
 40
0.4718909344069069
 40
0.4866332711818782
 40
0.5013754723788171
 40
0.5161176714731062
 40
0.5308599735871612
 40
0.5456024971332192
 40
0.5603453764829276
 40
0.5750887459114083
 40
0.5898327392394161
 40
0.6045774892970409
 40
0.6193231271298595
 40
0.6340697808559177
 40
0.6488175740625338
 40
0.6635666236076111
 40
0.6783170366604965
 40
0.6930689067826237
 40
0.707822308808836
 40
0.7225772922485314
 40
0.7373338728854264
 40
0.7520920222234375
 40
0.7668516544159413
 40
0.7816126103462179
 40
0.7963746386276167
 40
0.8111373735048263
 40
0.8259001982706676
 40
0.8406622916755845
 40
0.8554227225323391
 40
0.8701803385249176
 40
0.8849337554870481
 40
0.8996813642723152
 40
0.9144213641374199
 40
0.9291518321465463
 40
0.9438708366001998
 40
0.9585765977925331
 40
0.9732676907797135
 40
0.9879432726870722
 40
1.0
 40
1.0
 40
1.0
 40
1.0
 10
436.7122319658975
 20
-31.17704457739884
 30
0.0
 10
436.6862971929401
 20
-31.16911484576369
 30
0.0
 10
435.7763735729031
 20
-30.89089956594546
 30
0.0
 10
433.907435827077
 20
-30.5045445234908
 30
0.0
 10
431.1045172438115
 20
-30.03340934206145
 30
0.0
 10
428.2198603682805
 20
-29.76140619195594
 30
0.0
 10
425.2705663950737
 20
-29.66280421586645
 30
0.0
 10
422.2584942628303
 20
-29.74504536312328
 30
0.0
 10
419.1898413732224
 20
-30.00625041061913
 30
0.0
 10
416.0698561743048
 20
-30.44659361198357
 30
0.0
 10
412.9042158938742
 20
-31.06523512413179
 30
0.0
 10
409.6986140467705
 20
-31.86114172661278
 30
0.0
 10
406.4588315643381
 20
-32.83287436079807
 30
0.0
 10
403.1906842456925
 20
-33.9786595908757
 30
0.0
 10
399.9000103619512
 20
-35.29638836644956
 30
0.0
 10
396.5926540010457
 20
-36.78363517747102
 30
0.0
 10
393.2744548371472
 20
-38.43767094712199
 30
0.0
 10
389.9512504032809
 20
-40.25547022540731
 30
0.0
 10
386.6288592101998
 20
-42.23372565449809
 30
0.0
 10
383.3130720293817
 20
-44.36885968797226
 30
0.0
 10
380.009636671667
 20
-46.65704153613323
 30
0.0
 10
376.724263622466
 20
-49.0941893411123
 30
0.0
 10
373.4626234798691
 20
-51.67597509955055
 30
0.0
 10
370.2303403157979
 20
-54.39783159314621
 30
0.0
 10
367.0329845126366
 20
-57.25495942406807
 30
0.0
 10
363.8760651408558
 20
-60.24233429879253
 30
0.0
 10
360.7650219625006
 20
-63.35471465810436
 30
0.0
 10
357.705217151532
 20
-66.5866497143705
 30
0.0
 10
354.7019268201138
 20
-69.93248792905479
 30
0.0
 10
351.7603324336807
 20
-73.38638594259537
 30
0.0
 10
348.8855121894099
 20
-76.94231795377243
 30
0.0
 10
346.0824324240518
 20
-80.59408553518632
 30
0.0
 10
343.3559391087824
 20
-84.33532786428029
 30
0.0
 10
340.7107494812608
 20
-88.15953234454726
 30
0.0
 10
338.151443858585
 20
-92.06004558836325
 30
0.0
 10
335.6824576692648
 20
-96.03008473092545
 30
0.0
 10
333.3080737379369
 20
-100.0627490429382
 30
0.0
 10
331.0324163339395
 20
-104.1510291477072
 30
0.0
 10
328.859443041113
 20
-108.2878201731407
 30
0.0
 10
326.7929369800416
 20
-112.4659355458374
 30
0.0
 10
324.8364991621692
 20
-116.6781223308416
 30
0.0
 10
322.993543301455
 20
-120.9170727294972
 30
0.0
 10
321.2672909245182
 20
-125.1754352898563
 30
0.0
 10
319.6607661109487
 20
-129.4458276423529
 30
0.0
 10
318.176790654121
 20
-133.7208492374146
 30
0.0
 10
316.8179796531488
 20
-137.9930940363182
 30
0.0
 10
315.5867375423699
 20
-142.2551631025577
 30
0.0
 10
314.4852545593189
 20
-146.4996770358526
 30
0.0
 10
313.5155036447716
 20
-150.7192881852245
 30
0.0
 10
312.6792377584802
 20
-154.9066925715094
 30
0.0
 10
311.977987580866
 20
-159.0546414437607
 30
0.0
 10
311.4130595532535
 20
-163.1559523891064
 30
0.0
 10
310.9855341862772
 20
-167.2035199131755
 30
0.0
 10
310.696264536929
 20
-171.1903254104796
 30
0.0
 10
310.5458747190612
 20
-175.1094464540035
 30
0.0
 10
310.5347582696625
 20
-178.9540653568382
 30
0.0
 10
310.6630761487902
 20
-182.7174769961317
 30
0.0
 10
310.9307534236722
 20
-186.3930866961467
 30
0.0
 10
311.3374734176551
 20
-189.9744150154114
 30
0.0
 10
311.882671273804
 20
-193.4551128013207
 30
0.0
 10
312.5655288323783
 20
-196.8289766527944
 30
0.0
 10
313.3849675361068
 20
-200.0899599998866
 30
0.0
 10
314.3396406397604
 20
-203.2321733307227
 30
0.0
 10
315.4279138444867
 20
-206.2499115023301
 30
0.0
 10
316.6478904905022
 20
-209.1376242348151
 30
0.0
 10
317.9972754083655
 20
-211.890120052799
 30
0.0
 10
319.4738547102745
 20
-214.5019239135724
 30
0.0
 10
321.0737059925896
 20
-216.9698121732428
 30
0.0
 10
322.797906642652
 20
-219.2835203921832
 30
0.0
 10
324.5194314717708
 20
-221.3317996391943
 30
0.0
 10
325.7199309335872
 20
-222.5325103768271
 30
0.0
 10
326.2613766624678
 20
-223.0740513947036
 30
0.0
  0
LINE
  5
124
330
1F
100
AcDbEntity
  8
0
  6
Continuous
 62
     7
370
    25
100
AcDbLine
 10
458.7579044956
 20
-42.3738472145
 30
0.0
 11
446.0299824342
 21
-35.0261742081
 31
0.0
  0
LINE
  5
125
330
1F
100
AcDbEntity
  8
0
  6
Continuous
 62
     7
370
    25
100
AcDbLine
 10
334.039084379
 20
-229.0211193813
 30
0.0
 11
346.7670064403
 21
-236.3687923877
 31
0.0
  0
SPLINE
  5
126
330
1F
100
AcDbEntity
  8
0
  6
Continuous
 62
     7
370
    25
100
AcDbSpline
210
0.0
220
0.0
230
1.0
 70
     8
 71
     3
 72
    61
 73
    57
 74
     0
 42
0.00000001
 43
0.00000001
 40
0.0
 40
0.0
 40
0.0
 40
0.0
 40
0.0005018228358862
 40
0.0193357500142181
 40
0.0381855998518838
 40
0.0570537787902307
 40
0.0759413650866918
 40
0.0948482318752222
 40
0.1137732763144103
 40
0.1327146994403937
 40
0.1516702871103173
 40
0.1706376564967755
 40
0.189614449021686
 40
0.2085984648799976
 40
0.2275877441539166
 40
0.2465806047125919
 40
0.2655756485823266
 40
0.2845717476030817
 40
0.3035678605230083
 40
0.3225632885419552
 40
0.3415575912747048
 40
0.3605504665965274
 40
0.379541723925335
 40
0.3985312613066863
 40
0.4175190462459998
 40
0.436505099992349
 40
0.4554894848631857
 40
0.4744722941669113
 40
0.4934536442952684
 40
0.5124336685969586
 40
0.5314125126934836
 40
0.5503903309489484
 40
0.5693672838531539
 40
0.5883435361192159
 40
0.6073192553324002
 40
0.6262946110158448
 40
0.6452697740018412
 40
0.6642449160145543
 40
0.6832201784048325
 40
0.7021957074563432
 40
0.7211716761156217
 40
0.740148257244382
 40
0.7591256231775275
 40
0.7781039450619806
 40
0.7970833918752809
 40
0.8160641290083753
 40
0.8350463162726139
 40
0.8540301051604595
 40
0.873015635151929
 40
0.89200302881473
 40
0.910992385395902
 40
0.9299837725491908
 40
0.9489772157899234
 40
0.9679726852269784
 40
0.9869700791043996
 40
1.0
 40
1.0
 40
1.0
 40
1.0
 10
355.8067989285526
 20
-240.1421699844848
 30
0.0
 10
355.8302736302424
 20
-240.149535083515
 30
0.0
 10
356.7347780311466
 20
-240.4333199244867
 30
0.0
 10
358.5957410059493
 20
-240.8316738577749
 30
0.0
 10
361.3906370833385
 20
-241.3217502857495
 30
0.0
 10
364.2678903128456
 20
-241.6127000025338
 30
0.0
 10
367.2102835173804
 20
-241.7303271317828
 30
0.0
 10
370.2160165686017
 20
-241.6671277955928
 30
0.0
 10
373.2789012780545
 20
-241.4249517466531
 30
0.0
 10
376.3937077114912
 20
-241.0035841371875
 30
0.0
 10
379.5547701063452
 20
-240.4038262334846
 30
0.0
 10
382.7564038481742
 20
-239.6266724172131
 30
0.0
 10
385.9928336529173
 20
-238.6735241810743
 30
0.0
 10
389.2582470178515
 20
-237.5461188056732
 30
0.0
 10
392.5468071124113
 20
-236.2465307910655
 30
0.0
 10
395.8526699418743
 20
-234.7771526491763
 30
0.0
 10
399.1699949330005
 20
-233.1406818862285
 30
0.0
 10
402.4929441961969
 20
-231.3401128869924
 30
0.0
 10
405.8156965788909
 20
-229.3787237437356
 30
0.0
 10
409.1324581325831
 20
-227.2600637729827
 30
0.0
 10
412.4374760715828
 20
-224.9879374676651
 30
0.0
 10
415.7250360435278
 20
-222.5664001508699
 30
0.0
 10
418.9894629113064
 20
-219.9997540281034
 30
0.0
 10
422.22512733352
 20
-217.2925412574536
 30
0.0
 10
425.4264528748452
 20
-214.4495369329719
 30
0.0
 10
428.5879235834959
 20
-211.4757418325704
 30
0.0
 10
431.7040919523171
 20
-208.3763748282291
 30
0.0
 10
434.769587172696
 20
-205.1568648939415
 30
0.0
 10
437.7791235917385
 20
-201.8228426758147
 30
0.0
 10
440.7275092890885
 20
-198.3801316102904
 30
0.0
 10
443.6096546978506
 20
-194.8347385920052
 30
0.0
 10
446.4205812027504
 20
-191.1928442037294
 30
0.0
 10
449.155429657023
 20
-187.460792528316
 30
0.0
 10
451.8094687670948
 20
-183.6450805676006
 30
0.0
 10
454.37810330073
 20
-179.7523472965269
 30
0.0
 10
456.8568820799666
 20
-175.789362382861
 30
0.0
 10
459.2415057247099
 20
-171.763014604639
 30
0.0
 10
461.5278328731792
 20
-167.6803022191496
 30
0.0
 10
463.7118878200101
 20
-163.5483206936888
 30
0.0
 10
465.7898686125552
 20
-159.3742485237291
 30
0.0
 10
467.7581545529994
 20
-155.1653323627088
 30
0.0
 10
469.6133118534904
 20
-150.9288746299825
 30
0.0
 10
471.352098332937
 20
-146.6722227469058
 30
0.0
 10
472.9714687119528
 20
-142.4027564090557
 30
0.0
 10
474.4685795292937
 20
-138.1278748281701
 30
0.0
 10
475.8407934764709
 20
-133.8549841025364
 30
0.0
 10
477.0856838611756
 20
-129.5914843562891
 30
0.0
 10
478.2010365198277
 20
-125.3447582417606
 30
0.0
 10
479.1848591807041
 20
-121.1221551315628
 30
0.0
 10
480.0353609824692
 20
-116.9309924802886
 30
0.0
 10
480.7510414404957
 20
-112.7784945126588
 30
0.0
 10
481.3303690858139
 20
-108.6719666220466
 30
0.0
 10
481.7729901465644
 20
-104.618092101244
 30
0.0
 10
482.075224905657
 20
-100.6255074427821
 30
0.0
 10
482.2289060520979
 20
-97.10679978772457
 30
0.0
 10
482.2448297984104
 20
-94.94156774283216
 30
0.0
 10
482.2513081796385
 20
-94.06066959493833
 30
0.0
  0
SPLINE
  5
127
330
1F
100
AcDbEntity
  8
0
  6
Continuous
 62
     7
370
    25
100
AcDbSpline
210
0.0
220
0.0
230
1.0
 70
     8
 71
     3
 72
    23
 73
    19
 74
     0
 42
0.00000001
 43
0.00000001
 40
0.0
 40
0.0
 40
0.0
 40
0.0
 40
0.0351421464760453
 40
0.1018769357788293
 40
0.1686193213286831
 40
0.235361717749877
 40
0.3021004056743615
 40
0.3688310730210101
 40
0.4355484001302381
 40
0.5022460180214333
 40
0.5689165501601756
 40
0.6355517786535562
 40
0.7021429776720379
 40
0.7686814487933842
 40
0.8351592699336389
 40
0.9015702286522946
 40
0.9679108543919673
 40
1.0
 40
1.0
 40
1.0
 40
1.0
 10
482.2513081796385
 20
-94.06066959493833
 30
0.0
 10
482.2474203645228
 20
-93.38928664478094
 30
0.0
 10
482.2361496047491
 20
-91.44295027791132
 30
0.0
 10
482.1109243169745
 20
-88.28362141386073
 30
0.0
 10
481.8299676023262
 20
-84.61698057819959
 30
0.0
 10
481.4081177703972
 20
-81.04625395693039
 30
0.0
 10
480.8483718484292
 20
-77.57654594489435
 30
0.0
 10
480.1509322401411
 20
-74.21439552858418
 30
0.0
 10
479.3170782870473
 20
-70.96573799181019
 30
0.0
 10
478.3481385001858
 20
-67.83647227055735
 30
0.0
 10
477.2457949580069
 20
-64.8322702468992
 30
0.0
 10
476.0119532258438
 20
-61.95868827120431
 30
0.0
 10
474.6490119366841
 20
-59.22079558828887
 30
0.0
 10
473.1589520774602
 20
-56.6244014299761
 30
0.0
 10
471.5467110371622
 20
-54.171348578173
 30
0.0
 10
469.8075701773685
 20
-51.87689466832003
 30
0.0
 10
468.2889594844165
 20
-50.0778401585497
 30
0.0
 10
467.3081535883169
 20
-49.10432342854929
 30
0.0
 10
466.9884005016011
 20
-48.78694668700952
 30
0.0
  0
SPLINE
  5
128
330
1F
100
AcDbEntity
  8
0
  6
Continuous
 62
     7
370
    25
100
AcDbSpline
210
0.0
220
0.0
230
1.0
 70
     8
 71
     3
 72
    14
 73
    10
 74
     0
 42
0.00000001
 43
0.00000001
 40
0.0
 40
0.0
 40
0.0
 40
0.0
 40
0.0497803310260048
 40
0.2515460809320098
 40
0.4277046355513953
 40
0.615236546970099
 40
0.7955769620302013
 40
0.962419857714674
 40
1.0
 40
1.0
 40
1.0
 40
1.0
 10
439.4426376223769
 20
-150.1838474978993
 30
0.0
 10
439.493715846581
 20
-150.2051854172122
 30
0.0
 10
439.7518203399559
 20
-150.3130085246083
 30
0.0
 10
440.1040057979538
 20
-150.6440866898625
 30
0.0
 10
440.522887272365
 20
-151.2041362861963
 30
0.0
 10
440.8357809798523
 20
-151.9154078183755
 30
0.0
 10
441.0377894807811
 20
-152.7637218257942
 30
0.0
 10
441.1017499484765
 20
-153.461185437548
 30
0.0
 10
441.1050031631828
 20
-153.8555079219657
 30
0.0
 10
441.1056012184351
 20
-153.9279982597373
 30
0.0
  0
SPLINE
  5
129
330
1F
100
AcDbEntity
  8
0
  6
Continuous
 62
     7
370
    25
100
AcDbSpline
210
0.0
220
0.0
230
1.0
 70
     8
 71
     3
 72
    25
 73
    21
 74
     0
 42
0.00000001
 43
0.00000001
 40
0.0
 40
0.0
 40
0.0
 40
0.0
 40
0.031087374913745
 40
0.0907852873530854
 40
0.1507040968075003
 40
0.2108334388599678
 40
0.2711402336252072
 40
0.3315630663185307
 40
0.3920305222459332
 40
0.4524567286145594
 40
0.5127519317552092
 40
0.5728414391005587
 40
0.6326591996644928
 40
0.6921676385348828
 40
0.7514033806207523
 40
0.8105507644899799
 40
0.8699577179240419
 40
0.9305376937507117
 40
0.9938781959802987
 40
1.0
 40
1.0
 40
1.0
 40
1.0
 10
441.1056012184351
 20
-153.9279982597373
 30
0.0
 10
441.1021674970219
 20
-154.1093169764186
 30
0.0
 10
441.0921399091006
 20
-154.6388268447198
 30
0.0
 10
440.978460034039
 20
-155.5812641188631
 30
0.0
 10
440.7209046142588
 20
-156.7533164976956
 30
0.0
 10
440.336000011647
 20
-157.9568453221341
 30
0.0
 10
439.8326648881022
 20
-159.1625424097637
 30
0.0
 10
439.2204999607683
 20
-160.3432596577616
 30
0.0
 10
438.51307462404
 20
-161.4717547805043
 30
0.0
 10
437.726685527073
 20
-162.5222336520275
 30
0.0
 10
436.8802127405775
 20
-163.4709759941657
 30
0.0
 10
435.9946158641345
 20
-164.297151996187
 30
0.0
 10
435.0924661974632
 20
-164.9836035084184
 30
0.0
 10
434.1974768555292
 20
-165.5175047919858
 30
0.0
 10
433.3332515834085
 20
-165.8918924135234
 30
0.0
 10
432.5233226618621
 20
-166.1041684635612
 30
0.0
 10
431.7831237335549
 20
-166.1648612230805
 30
0.0
 10
431.1308459023074
 20
-166.0636495859832
 30
0.0
 10
430.7151325852147
 20
-165.9386889437553
 30
0.0
 10
430.5339517020091
 20
-165.7980078908544
 30
0.0
 10
430.5179839934923
 20
-165.785609485422
 30
0.0
  0
SPLINE
  5
12A
330
1F
100
AcDbEntity
  8
0
  6
Continuous
 62
     7
370
    25
100
AcDbSpline
210
0.0
220
0.0
230
1.0
 70
     8
 71
     3
 72
    20
 73
    16
 74
     0
 42
0.00000001
 43
0.00000001
 40
0.0
 40
0.0
 40
0.0
 40
0.0
 40
0.0273210131609831
 40
0.113594161221374
 40
0.1996620056274561
 40
0.2855076049957802
 40
0.3711402301116019
 40
0.4565863846841428
 40
0.5418808390614671
 40
0.6270597496439838
 40
0.7121563555585945
 40
0.7971988587722375
 40
0.8822098134154158
 40
0.9672064005315939
 40
1.0
 40
1.0
 40
1.0
 40
1.0
 10
425.9883168965333
 20
-79.58422369112897
 30
0.0
 10
426.1483206384689
 20
-79.72800618407616
 30
0.0
 10
426.8135774776044
 20
-80.3258189953514
 30
0.0
 10
427.873378055942
 20
-81.54102815812486
 30
0.0
 10
429.1600668657053
 20
-83.22586262917173
 30
0.0
 10
430.3198576289532
 20
-85.0701290584751
 30
0.0
 10
431.3592865986992
 20
-87.05323641278198
 30
0.0
 10
432.2730119023543
 20
-89.17311173053972
 30
0.0
 10
433.0592676870169
 20
-91.4224977758741
 30
0.0
 10
433.7157159489586
 20
-93.7951661247276
 30
0.0
 10
434.2403300158026
 20
-96.2842894441174
 30
0.0
 10
434.6319474552538
 20
-98.88238470593164
 30
0.0
 10
434.8873075342038
 20
-101.5829147016108
 30
0.0
 10
434.9869131796257
 20
-103.8025202049866
 30
0.0
 10
434.9943920223571
 20
-105.1228063902737
 30
0.0
 10
434.9964741836995
 20
-105.4903831604563
 30
0.0
  0
SPLINE
  5
12B
330
1F
100
AcDbEntity
  8
0
  6
Continuous
 62
     7
370
    25
100
AcDbSpline
210
0.0
220
0.0
230
1.0
 70
     8
 71
     3
 72
    48
 73
    44
 74
     0
 42
0.00000001
 43
0.00000001
 40
0.0
 40
0.0
 40
0.0
 40
0.0
 40
0.013112044917103
 40
0.0380701196897252
 40
0.0630343648099169
 40
0.0880029189045735
 40
0.1129764589803338
 40
0.1379552420016842
 40
0.162939222040529
 40
0.1879281394993415
 40
0.2129215870864446
 40
0.2379190576148821
 40
0.2629199779205325
 40
0.2879237323769169
 40
0.3129296787446371
 40
0.337937158478316
 40
0.3629455031306533
 40
0.3879540381326656
 40
0.4129619210038618
 40
0.4379684091188784
 40
0.4629728215363071
 40
0.4879744799325862
 40
0.5129727135887965
 40
0.5379668676681579
 40
0.5629563162430138
 40
0.5879404819785707
 40
0.6129188649450649
 40
0.6378910837289371
 40
0.6628569328240793
 40
0.6878164611275271
 40
0.7127700770563071
 40
0.7377186859745305
 40
0.7626638645971114
 40
0.7876078806211846
 40
0.8125531992685268
 40
0.8375043164463957
 40
0.8624672721091043
 40
0.8874498098520496
 40
0.9124613445311704
 40
0.9375125786509629
 40
0.9626145757347392
 40
0.9877771274439203
 40
1.0
 40
1.0
 40
1.0
 40
1.0
 10
434.9964741836995
 20
-105.4903831604563
 30
0.0
 10
434.9926865997415
 20
-105.9948221068551
 30
0.0
 10
434.9816895527114
 20
-107.4594335528173
 30
0.0
 10
434.8592903968544
 20
-109.9442380219515
 30
0.0
 10
434.5844268700668
 20
-112.9600433931307
 30
0.0
 10
434.1719498314336
 20
-116.03616426082
 30
0.0
 10
433.625269966421
 20
-119.1615845953003
 30
0.0
 10
432.9452497668263
 20
-122.3270811018219
 30
0.0
 10
432.1339821658548
 20
-125.5227916704729
 30
0.0
 10
431.193774004786
 20
-128.7388815283271
 30
0.0
 10
430.1274085980589
 20
-131.9654109560977
 30
0.0
 10
428.9380631017252
 20
-135.192415358996
 30
0.0
 10
427.6293165496205
 20
-138.4099269516058
 30
0.0
 10
426.2051320783408
 20
-141.6080108261438
 30
0.0
 10
424.6698447942316
 20
-144.7767960818538
 30
0.0
 10
423.0281470082354
 20
-147.9065073431939
 30
0.0
 10
421.2850731610772
 20
-150.9874953510356
 30
0.0
 10
419.445987902035
 20
-154.0102604599578
 30
0.0
 10
417.5165679443389
 20
-156.965487017701
 30
0.0
 10
415.502783280981
 20
-159.844075450323
 30
0.0
 10
413.4108741274155
 20
-162.6371769786448
 30
0.0
 10
411.2473342815699
 20
-165.3362173239958
 30
0.0
 10
409.018893253358
 20
-167.9329219521202
 30
0.0
 10
406.7324960060246
 20
-170.4193433355829
 30
0.0
 10
404.3952818062136
 20
-172.7878878043503
 30
0.0
 10
402.0145620378011
 20
-175.0313419834348
 30
0.0
 10
399.5977967687366
 20
-177.1428987939657
 30
0.0
 10
397.1525697771919
 20
-179.1161829491462
 30
0.0
 10
394.6865616479826
 20
-180.9452757878095
 30
0.0
 10
392.2075204339988
 20
-182.6247391679195
 30
0.0
 10
389.7232293149683
 20
-184.1496378487187
 30
0.0
 10
387.2414704977101
 20
-185.5155597333708
 30
0.0
 10
384.7699915275908
 20
-186.7186287640918
 30
0.0
 10
382.3164897393008
 20
-187.755507218049
 30
0.0
 10
379.8885431174778
 20
-188.6234132026695
 30
0.0
 10
377.4935386166629
 20
-189.3201452153386
 30
0.0
 10
375.1386369523716
 20
-189.8439702885686
 30
0.0
 10
372.8305692189376
 20
-190.1939368676859
 30
0.0
 10
370.5762565143323
 20
-190.3684689607214
 30
0.0
 10
368.3803385023816
 20
-190.3703360105202
 30
0.0
 10
366.2544035787344
 20
-190.1877079998373
 30
0.0
 10
364.5395551187416
 20
-189.920380306478
 30
0.0
 10
363.5668572065721
 20
-189.6490527425553
 30
0.0
 10
363.2488412190669
 20
-189.5603443140713
 30
0.0
  0
SPLINE
  5
12C
330
1F
100
AcDbEntity
  8
0
  6
Continuous
 62
     7
370
    25
100
AcDbSpline
210
0.0
220
0.0
230
1.0
 70
     8
 71
     3
 72
    58
 73
    54
 74
     0
 42
0.00000001
 43
0.00000001
 40
0.0
 40
0.0
 40
0.0
 40
0.0
 40
0.0006784013572906
 40
0.0210677210015387
 40
0.0414044298099286
 40
0.0616904896754355
 40
0.0819320444470533
 40
0.1021372822315821
 40
0.1223147788827857
 40
0.1424724525253268
 40
0.1626170416685604
 40
0.1827539480238876
 40
0.2028872948711776
 40
0.2230198416723944
 40
0.2431533188739176
 40
0.2632893188207814
 40
0.2834288267999757
 40
0.3035723720655704
 40
0.3237201491658788
 40
0.3438721120048673
 40
0.364028044879714
 40
0.384187614959956
 40
0.4043504102741622
 40
0.4245159666392714
 40
0.4446837863090981
 40
0.4648533505260634
 40
0.4850241276688237
 40
0.5051955783033141
 40
0.5253671581580731
 40
0.5455381794748041
 40
0.5657080513297215
 40
0.5858762245199312
 40
0.6060421520891879
 40
0.6262052934484234
 40
0.6463651211953533
 40
0.6665211318252765
 40
0.6866728618894349
 40
0.7068199116173557
 40
0.7269619785879962
 40
0.7470989046912208
 40
0.767230740299889
 40
0.7873578301203618
 40
0.8074809252991642
 40
0.8276013254777198
 40
0.8477208559373806
 40
0.8678415746654184
 40
0.887967159575557
 40
0.9081025416420158
 40
0.9282540289182194
 40
0.9484292708148088
 40
0.9686369325476366
 40
0.9888859246879155
 40
1.0
 40
1.0
 40
1.0
 40
1.0
 10
365.0427453400415
 20
-189.9564958318222
 30
0.0
 10
365.0272281414445
 20
-189.9395558376656
 30
0.0
 10
364.5453422972418
 20
-189.4134851468807
 30
0.0
 10
363.7007653873426
 20
-188.234268443745
 30
0.0
 10
362.523772616987
 20
-186.4135027261725
 30
0.0
 10
361.481987544192
 20
-184.4320398630415
 30
0.0
 10
360.5617939598275
 20
-182.3193013272038
 30
0.0
 10
359.7700267926291
 20
-180.0752347921407
 30
0.0
 10
359.1077185887454
 20
-177.7079852498013
 30
0.0
 10
358.5771316592313
 20
-175.2239198863699
 30
0.0
 10
358.1798580083296
 20
-172.6303539893913
 30
0.0
 10
357.917284682371
 20
-169.9348498934573
 30
0.0
 10
357.7904218701628
 20
-167.1454137684838
 30
0.0
 10
357.7999025507439
 20
-164.2704286520428
 30
0.0
 10
357.9459443538358
 20
-161.3186085732133
 30
0.0
 10
358.2283393975613
 20
-158.2989437134411
 30
0.0
 10
358.6464496205089
 20
-155.2206546664689
 30
0.0
 10
359.1992011787357
 20
-152.0931824401202
 30
0.0
 10
359.8850837152254
 20
-148.926148427532
 30
0.0
 10
360.7021535616975
 20
-145.7293154438489
 30
0.0
 10
361.6480398673113
 20
-142.5125501949563
 30
0.0
 10
362.7199529724681
 20
-139.2857871390378
 30
0.0
 10
363.9146945121688
 20
-136.0589936277996
 30
0.0
 10
365.2286688930898
 20
-132.8421361640634
 30
0.0
 10
366.6578958997186
 20
-129.6451476171108
 30
0.0
 10
368.1980242654272
 20
-126.4778952577764
 30
0.0
 10
369.8443460993657
 20
-123.350149502921
 30
0.0
 10
371.5918120952941
 20
-120.2715532883844
 30
0.0
 10
373.4350432018748
 20
-117.2515990111501
 30
0.0
 10
375.3683492654147
 20
-114.2995933263549
 30
0.0
 10
377.3857476512726
 20
-111.4246255099134
 30
0.0
 10
379.4809866327286
 20
-108.6355324222207
 30
0.0
 10
381.6475614954819
 20
-105.9408755794265
 30
0.0
 10
383.8787326978546
 20
-103.3489155304528
 30
0.0
 10
386.1675461668624
 20
-100.8675846129567
 30
0.0
 10
388.5068544907886
 20
-98.5044601209834
 30
0.0
 10
390.8893391557558
 20
-96.26673788622581
 30
0.0
 10
393.3075340409384
 20
-94.16120629673932
 30
0.0
 10
395.75385046793
 20
-92.19422082929147
 30
0.0
 10
398.220604206318
 20
-90.3716792394346
 30
0.0
 10
400.7000449142144
 20
-88.69899776228011
 30
0.0
 10
403.1843887017155
 20
-87.18108865591346
 30
0.0
 10
405.6658541387268
 20
-85.82234067148295
 30
0.0
 10
408.1366955178946
 20
-84.62660495466622
 30
0.0
 10
410.5892175342807
 20
-83.59719937863794
 30
0.0
 10
413.0158575881298
 20
-82.7368619505735
 30
0.0
 10
415.4092067330429
 20
-82.04783967313666
 30
0.0
 10
417.7622379244391
 20
-81.53157956951411
 30
0.0
 10
420.0677791723707
 20
-81.18999436821832
 30
0.0
 10
422.3206248662622
 20
-81.02097099123966
 30
0.0
 10
424.5097905793614
 20
-81.03545646392934
 30
0.0
 10
426.3243529059796
 20
-81.16993117350353
 30
0.0
 10
427.3761734928395
 20
-81.36796899399091
 30
0.0
 10
427.7489053129944
 20
-81.43814730977208
 30
0.0
  0
SPLINE
  5
12D
330
1F
100
AcDbEntity
  8
0
  6
Continuous
 62
     7
370
    25
100
AcDbSpline
210
0.0
220
0.0
230
1.0
 70
     8
 71
     3
 72
    14
 73
    10
 74
     0
 42
0.00000001
 43
0.00000001
 40
0.0
 40
0.0
 40
0.0
 40
0.0
 40
0.0497803310260441
 40
0.251546080932044
 40
0.4277046355514243
 40
0.6152365469701263
 40
0.7955769620302268
 40
0.9624198577146968
 40
1.0
 40
1.0
 40
1.0
 40
1.0
 10
458.0822479291688
 20
-87.45909044172691
 30
0.0
 10
458.1333261533729
 20
-87.48042836103991
 30
0.0
 10
458.3914306467478
 20
-87.58825146843601
 30
0.0
 10
458.7436161047457
 20
-87.9193296336903
 30
0.0
 10
459.1624975791568
 20
-88.47937923002404
 30
0.0
 10
459.4753912866441
 20
-89.19065076220329
 30
0.0
 10
459.6773997875728
 20
-90.038964769622
 30
0.0
 10
459.7413602552683
 20
-90.73642838137567
 30
0.0
 10
459.7446134699745
 20
-91.13075086579333
 30
0.0
 10
459.7452115252269
 20
-91.20324120356484
 30
0.0
  0
SPLINE
  5
12E
330
1F
100
AcDbEntity
  8
0
  6
Continuous
 62
     7
370
    25
100
AcDbSpline
210
0.0
220
0.0
230
1.0
 70
     8
 71
     3
 72
    25
 73
    21
 74
     0
 42
0.00000001
 43
0.00000001
 40
0.0
 40
0.0
 40
0.0
 40
0.0
 40
0.0310873749137445
 40
0.0907852873531004
 40
0.150704096807513
 40
0.2108334388599739
 40
0.2711402336252198
 40
0.3315630663185395
 40
0.3920305222459416
 40
0.4524567286145674
 40
0.5127519317552117
 40
0.5728414391005637
 40
0.6326591996644952
 40
0.6921676385348849
 40
0.7514033806207546
 40
0.8105507644899822
 40
0.8699577179240455
 40
0.9305376937507157
 40
0.9938781959803036
 40
1.0
 40
1.0
 40
1.0
 40
1.0
 10
459.7452115252269
 20
-91.20324120356484
 30
0.0
 10
459.7417778038136
 20
-91.38455992024618
 30
0.0
 10
459.7317502158923
 20
-91.91406978854752
 30
0.0
 10
459.6180703408307
 20
-92.8565070626909
 30
0.0
 10
459.3605149210505
 20
-94.02855944152347
 30
0.0
 10
458.9756103184387
 20
-95.23208826596199
 30
0.0
 10
458.4722751948938
 20
-96.4377853535915
 30
0.0
 10
457.8601102675599
 20
-97.61850260158947
 30
0.0
 10
457.1526849308316
 20
-98.74699772433215
 30
0.0
 10
456.3662958338646
 20
-99.79747659585524
 30
0.0
 10
455.5198230473691
 20
-100.7462189379934
 30
0.0
 10
454.6342261709261
 20
-101.5723949400147
 30
0.0
 10
453.7320765042548
 20
-102.2588464522461
 30
0.0
 10
452.8370871623209
 20
-102.7927477358134
 30
0.0
 10
451.9728618902001
 20
-103.1671353573511
 30
0.0
 10
451.1629329686537
 20
-103.3794114073888
 30
0.0
 10
450.4227340403464
 20
-103.4401041669081
 30
0.0
 10
449.770456209099
 20
-103.3388925298107
 30
0.0
 10
449.3547428920064
 20
-103.2139318875828
 30
0.0
 10
449.1735620088008
 20
-103.0732508346819
 30
0.0
 10
449.1575943002839
 20
-103.0608524292496
 30
0.0
  0
SPLINE
  5
12F
330
1F
100
AcDbEntity
  8
0
  6
Continuous
 62
     7
370
    25
100
AcDbSpline
210
0.0
220
0.0
230
1.0
 70
     8
 71
     3
 72
    14
 73
    10
 74
     0
 42
0.00000001
 43
0.00000001
 40
0.0
 40
0.0
 40
0.0
 40
0.0
 40
0.049780331026074
 40
0.2515460809320702
 40
0.4277046355514618
 40
0.6152365469701694
 40
0.7955769620302703
 40
0.9624198577147405
 40
1.0
 40
1.0
 40
1.0
 40
1.0
 10
394.4426376223753
 20
-197.6861285434668
 30
0.0
 10
394.4937158465795
 20
-197.7074664627798
 30
0.0
 10
394.7518203399544
 20
-197.8152895701759
 30
0.0
 10
395.1040057979523
 20
-198.1463677354302
 30
0.0
 10
395.5228872723635
 20
-198.706417331764
 30
0.0
 10
395.8357809798507
 20
-199.4176888639433
 30
0.0
 10
396.0377894807795
 20
-200.2660028713621
 30
0.0
 10
396.1017499484748
 20
-200.9634664831158
 30
0.0
 10
396.1050031631811
 20
-201.3577889675333
 30
0.0
 10
396.1056012184334
 20
-201.4302793053047
 30
0.0
  0
SPLINE
  5
130
330
1F
100
AcDbEntity
  8
0
  6
Continuous
 62
     7
370
    25
100
AcDbSpline
210
0.0
220
0.0
230
1.0
 70
     8
 71
     3
 72
    25
 73
    21
 74
     0
 42
0.00000001
 43
0.00000001
 40
0.0
 40
0.0
 40
0.0
 40
0.0
 40
0.0310873749137449
 40
0.090785287353091
 40
0.1507040968075075
 40
0.2108334388599707
 40
0.2711402336252148
 40
0.3315630663185337
 40
0.3920305222459395
 40
0.4524567286145697
 40
0.5127519317552132
 40
0.5728414391005656
 40
0.6326591996644982
 40
0.6921676385348915
 40
0.7514033806207585
 40
0.8105507644899845
 40
0.8699577179240491
 40
0.930537693750721
 40
0.9938781959803091
 40
1.0
 40
1.0
 40
1.0
 40
1.0
 10
396.1056012184334
 20
-201.4302793053047
 30
0.0
 10
396.1021674970202
 20
-201.611598021986
 30
0.0
 10
396.0921399090989
 20
-202.1411078902873
 30
0.0
 10
395.9784600340373
 20
-203.0835451644307
 30
0.0
 10
395.720904614257
 20
-204.2555975432632
 30
0.0
 10
395.3360000116453
 20
-205.4591263677017
 30
0.0
 10
394.8326648881005
 20
-206.6648234553313
 30
0.0
 10
394.2204999607665
 20
-207.8455407033292
 30
0.0
 10
393.5130746240382
 20
-208.9740358260719
 30
0.0
 10
392.7266855270711
 20
-210.0245146975951
 30
0.0
 10
391.8802127405757
 20
-210.9732570397333
 30
0.0
 10
390.9946158641327
 20
-211.7994330417546
 30
0.0
 10
390.0924661974614
 20
-212.485884553986
 30
0.0
 10
389.1974768555274
 20
-213.0197858375533
 30
0.0
 10
388.3332515834066
 20
-213.3941734590909
 30
0.0
 10
387.5233226618603
 20
-213.6064495091286
 30
0.0
 10
386.7831237335531
 20
-213.6671422686479
 30
0.0
 10
386.1308459023056
 20
-213.5659306315507
 30
0.0
 10
385.7151325852129
 20
-213.4409699893227
 30
0.0
 10
385.5339517020074
 20
-213.3002889364218
 30
0.0
 10
385.5179839934905
 20
-213.2878905309894
 30
0.0
  0
SPLINE
  5
131
330
1F
100
AcDbEntity
  8
0
  6
Continuous
 62
     7
370
    25
100
AcDbSpline
210
0.0
220
0.0
230
1.0
 70
     8
 71
     3
 72
    14
 73
    10
 74
     0
 42
0.00000001
 43
0.00000001
 40
0.0
 40
0.0
 40
0.0
 40
0.0
 40
0.049780331026034
 40
0.2515460809320499
 40
0.4277046355514286
 40
0.6152365469701289
 40
0.7955769620302402
 40
0.9624198577147094
 40
1.0
 40
1.0
 40
1.0
 40
1.0
 10
439.4426376223813
 20
-46.25516936189786
 30
0.0
 10
439.4937158465854
 20
-46.27650728121088
 30
0.0
 10
439.7518203399603
 20
-46.38433038860698
 30
0.0
 10
440.1040057979582
 20
-46.71540855386124
 30
0.0
 10
440.5228872723694
 20
-47.27545815019503
 30
0.0
 10
440.8357809798566
 20
-47.98672968237429
 30
0.0
 10
441.0377894807854
 20
-48.83504368979303
 30
0.0
 10
441.1017499484809
 20
-49.53250730154671
 30
0.0
 10
441.1050031631871
 20
-49.92682978596434
 30
0.0
 10
441.1056012184394
 20
-49.99932012373584
 30
0.0
  0
SPLINE
  5
132
330
1F
100
AcDbEntity
  8
0
  6
Continuous
 62
     7
370
    25
100
AcDbSpline
210
0.0
220
0.0
230
1.0
 70
     8
 71
     3
 72
    25
 73
    21
 74
     0
 42
0.00000001
 43
0.00000001
 40
0.0
 40
0.0
 40
0.0
 40
0.0
 40
0.031087374913745
 40
0.0907852873530857
 40
0.1507040968075045
 40
0.2108334388599624
 40
0.2711402336252067
 40
0.3315630663185288
 40
0.3920305222459348
 40
0.4524567286145651
 40
0.512751931755207
 40
0.5728414391005608
 40
0.6326591996644942
 40
0.6921676385348837
 40
0.7514033806207518
 40
0.8105507644899791
 40
0.8699577179240425
 40
0.9305376937507117
 40
0.9938781959802983
 40
1.0
 40
1.0
 40
1.0
 40
1.0
 10
441.1056012184394
 20
-49.99932012373584
 30
0.0
 10
441.1021674970261
 20
-50.18063884041718
 30
0.0
 10
441.0921399091048
 20
-50.71014870871841
 30
0.0
 10
440.9784600340432
 20
-51.65258598286172
 30
0.0
 10
440.720904614263
 20
-52.82463836169426
 30
0.0
 10
440.3360000116513
 20
-54.02816718613273
 30
0.0
 10
439.8326648881065
 20
-55.2338642737622
 30
0.0
 10
439.2204999607725
 20
-56.41458152176024
 30
0.0
 10
438.5130746240442
 20
-57.54307664450296
 30
0.0
 10
437.7266855270772
 20
-58.59355551602614
 30
0.0
 10
436.8802127405818
 20
-59.54229785816431
 30
0.0
 10
435.9946158641388
 20
-60.36847386018561
 30
0.0
 10
435.0924661974674
 20
-61.05492537241708
 30
0.0
 10
434.1974768555335
 20
-61.58882665598433
 30
0.0
 10
433.3332515834127
 20
-61.96321427752202
 30
0.0
 10
432.5233226618664
 20
-62.1754903275597
 30
0.0
 10
431.7831237335591
 20
-62.23618308707909
 30
0.0
 10
431.1308459023116
 20
-62.13497144998174
 30
0.0
 10
430.715132585219
 20
-62.01001080775392
 30
0.0
 10
430.5339517020134
 20
-61.86932975485296
 30
0.0
 10
430.5179839934965
 20
-61.85693134942061
 30
0.0
  0
SPLINE
  5
133
330
1F
100
AcDbEntity
  8
0
  6
Continuous
 62
     7
370
    25
100
AcDbSpline
210
0.0
220
0.0
230
1.0
 70
     8
 71
     3
 72
    14
 73
    10
 74
     0
 42
0.00000001
 43
0.00000001
 40
0.0
 40
0.0
 40
0.0
 40
0.0
 40
0.049780331026002
 40
0.2515460809320056
 40
0.4277046355513942
 40
0.6152365469700913
 40
0.7955769620301953
 40
0.9624198577146628
 40
0.9999999999999999
 40
0.9999999999999999
 40
0.9999999999999999
 40
0.9999999999999999
 10
349.4426376223753
 20
-202.1397415855943
 30
0.0
 10
349.4937158465794
 20
-202.1610795049072
 30
0.0
 10
349.7518203399543
 20
-202.2689026123033
 30
0.0
 10
350.1040057979521
 20
-202.5999807775575
 30
0.0
 10
350.5228872723634
 20
-203.1600303738913
 30
0.0
 10
350.8357809798507
 20
-203.8713019060705
 30
0.0
 10
351.0377894807795
 20
-204.7196159134893
 30
0.0
 10
351.1017499484749
 20
-205.4170795252429
 30
0.0
 10
351.1050031631812
 20
-205.8114020096607
 30
0.0
 10
351.1056012184335
 20
-205.8838923474322
 30
0.0
  0
SPLINE
  5
134
330
1F
100
AcDbEntity
  8
0
  6
Continuous
 62
     7
370
    25
100
AcDbSpline
210
0.0
220
0.0
230
1.0
 70
     8
 71
     3
 72
    25
 73
    21
 74
     0
 42
0.00000001
 43
0.00000001
 40
0.0
 40
0.0
 40
0.0
 40
0.0
 40
0.0310873749137449
 40
0.0907852873530928
 40
0.1507040968075107
 40
0.2108334388599728
 40
0.2711402336252131
 40
0.3315630663185318
 40
0.3920305222459368
 40
0.4524567286145616
 40
0.5127519317552051
 40
0.5728414391005574
 40
0.6326591996644853
 40
0.6921676385348783
 40
0.7514033806207443
 40
0.81055076448997
 40
0.8699577179240392
 40
0.9305376937507059
 40
0.993878195980291
 40
1.0
 40
1.0
 40
1.0
 40
1.0
 10
351.1056012184335
 20
-205.8838923474322
 30
0.0
 10
351.1021674970203
 20
-206.0652110641136
 30
0.0
 10
351.092139909099
 20
-206.5947209324148
 30
0.0
 10
350.9784600340373
 20
-207.5371582065583
 30
0.0
 10
350.7209046142571
 20
-208.7092105853908
 30
0.0
 10
350.3360000116454
 20
-209.9127394098293
 30
0.0
 10
349.8326648881005
 20
-211.1184364974588
 30
0.0
 10
349.2204999607666
 20
-212.2991537454568
 30
0.0
 10
348.5130746240384
 20
-213.4276488681994
 30
0.0
 10
347.7266855270713
 20
-214.4781277397225
 30
0.0
 10
346.8802127405759
 20
-215.4268700818607
 30
0.0
 10
345.9946158641329
 20
-216.253046083882
 30
0.0
 10
345.0924661974616
 20
-216.9394975961134
 30
0.0
 10
344.1974768555277
 20
-217.4733988796807
 30
0.0
 10
343.3332515834069
 20
-217.8477865012183
 30
0.0
 10
342.5233226618605
 20
-218.0600625512562
 30
0.0
 10
341.7831237335532
 20
-218.1207553107755
 30
0.0
 10
341.1308459023058
 20
-218.0195436736782
 30
0.0
 10
340.7151325852132
 20
-217.8945830314503
 30
0.0
 10
340.5339517020076
 20
-217.7539019785494
 30
0.0
 10
340.5179839934906
 20
-217.741503573117
 30
0.0
  0
SPLINE
  5
135
330
1F
100
AcDbEntity
  8
0
  6
Continuous
 62
     7
370
    25
100
AcDbSpline
210
0.0
220
0.0
230
1.0
 70
     8
 71
     3
 72
    14
 73
    10
 74
     0
 42
0.00000001
 43
0.00000001
 40
0.0
 40
0.0
 40
0.0
 40
0.0
 40
0.0497803310260494
 40
0.2515460809320518
 40
0.4277046355514338
 40
0.6152365469701381
 40
0.7955769620302392
 40
0.9624198577147087
 40
0.9999999999999999
 40
0.9999999999999999
 40
0.9999999999999999
 40
0.9999999999999999
 10
394.4426376223814
 20
-50.70878240402542
 30
0.0
 10
394.4937158465855
 20
-50.73012032333845
 30
0.0
 10
394.7518203399604
 20
-50.83794343073458
 30
0.0
 10
395.1040057979583
 20
-51.16902159598877
 30
0.0
 10
395.5228872723695
 20
-51.72907119232261
 30
0.0
 10
395.8357809798567
 20
-52.44034272450183
 30
0.0
 10
396.0377894807854
 20
-53.28865673192055
 30
0.0
 10
396.1017499484809
 20
-53.98612034367428
 30
0.0
 10
396.1050031631871
 20
-54.38044282809186
 30
0.0
 10
396.1056012184395
 20
-54.45293316586336
 30
0.0
  0
SPLINE
  5
136
330
1F
100
AcDbEntity
  8
0
  6
Continuous
 62
     7
370
    25
100
AcDbSpline
210
0.0
220
0.0
230
1.0
 70
     8
 71
     3
 72
    25
 73
    21
 74
     0
 42
0.00000001
 43
0.00000001
 40
0.0
 40
0.0
 40
0.0
 40
0.0
 40
0.0310873749137449
 40
0.090785287353091
 40
0.1507040968075076
 40
0.2108334388599707
 40
0.2711402336252149
 40
0.3315630663185337
 40
0.3920305222459395
 40
0.4524567286145698
 40
0.5127519317552128
 40
0.5728414391005651
 40
0.6326591996645021
 40
0.6921676385348867
 40
0.7514033806207537
 40
0.8105507644899796
 40
0.8699577179240491
 40
0.9305376937507158
 40
0.9938781959803046
 40
1.0
 40
1.0
 40
1.0
 40
1.0
 10
396.1056012184395
 20
-54.45293316586336
 30
0.0
 10
396.1021674970262
 20
-54.63425188254468
 30
0.0
 10
396.092139909105
 20
-55.16376175084589
 30
0.0
 10
395.9784600340433
 20
-56.10619902498937
 30
0.0
 10
395.7209046142631
 20
-57.27825140382184
 30
0.0
 10
395.3360000116514
 20
-58.48178022826038
 30
0.0
 10
394.8326648881065
 20
-59.68747731588987
 30
0.0
 10
394.2204999607726
 20
-60.86819456388788
 30
0.0
 10
393.5130746240443
 20
-61.99668968663058
 30
0.0
 10
392.7266855270772
 20
-63.04716855815374
 30
0.0
 10
391.8802127405818
 20
-63.99591090029192
 30
0.0
 10
390.9946158641387
 20
-64.82208690231322
 30
0.0
 10
390.0924661974674
 20
-65.50853841454466
 30
0.0
 10
389.1974768555335
 20
-66.0424396981119
 30
0.0
 10
388.3332515834127
 20
-66.41682731964951
 30
0.0
 10
387.5233226618664
 20
-66.62910336968729
 30
0.0
 10
386.7831237335591
 20
-66.6897961292066
 30
0.0
 10
386.1308459023116
 20
-66.58858449210925
 30
0.0
 10
385.7151325852191
 20
-66.4636238498814
 30
0.0
 10
385.5339517020135
 20
-66.32294279698044
 30
0.0
 10
385.5179839934966
 20
-66.3105443915481
 30
0.0
  0
SPLINE
  5
137
330
1F
100
AcDbEntity
  8
0
  6
Continuous
 62
     7
370
    25
100
AcDbSpline
210
0.0
220
0.0
230
1.0
 70
     8
 71
     3
 72
    14
 73
    10
 74
     0
 42
0.00000001
 43
0.00000001
 40
0.0
 40
0.0
 40
0.0
 40
0.0
 40
0.049780331026073
 40
0.2515460809320902
 40
0.4277046355514724
 40
0.615236546970177
 40
0.7955769620302822
 40
0.9624198577147538
 40
1.0
 40
1.0
 40
1.0
 40
1.0
 10
330.803027315588
 20
-160.9358205057653
 30
0.0
 10
330.8541055397921
 20
-160.9571584250783
 30
0.0
 10
331.1122100331671
 20
-161.0649815324745
 30
0.0
 10
331.464395491165
 20
-161.3960596977288
 30
0.0
 10
331.8832769655761
 20
-161.9561092940626
 30
0.0
 10
332.1961706730634
 20
-162.6673808262419
 30
0.0
 10
332.398179173992
 20
-163.5156948336607
 30
0.0
 10
332.4621396416875
 20
-164.2131584454143
 30
0.0
 10
332.4653928563937
 20
-164.6074809298318
 30
0.0
 10
332.465990911646
 20
-164.6799712676032
 30
0.0
  0
SPLINE
  5
138
330
1F
100
AcDbEntity
  8
0
  6
Continuous
 62
     7
370
    25
100
AcDbSpline
210
0.0
220
0.0
230
1.0
 70
     8
 71
     3
 72
    25
 73
    21
 74
     0
 42
0.00000001
 43
0.00000001
 40
0.0
 40
0.0
 40
0.0
 40
0.0
 40
0.0310873749137447
 40
0.0907852873531009
 40
0.1507040968075138
 40
0.210833438859975
 40
0.2711402336252213
 40
0.3315630663185414
 40
0.3920305222459438
 40
0.4524567286145699
 40
0.5127519317552118
 40
0.572841439100565
 40
0.6326591996644969
 40
0.6921676385348868
 40
0.7514033806207548
 40
0.8105507644899828
 40
0.8699577179240474
 40
0.930537693750718
 40
0.9938781959803031
 40
1.0
 40
1.0
 40
1.0
 40
1.0
 10
332.465990911646
 20
-164.6799712676032
 30
0.0
 10
332.4625571902328
 20
-164.8612899842846
 30
0.0
 10
332.4525296023115
 20
-165.3907998525859
 30
0.0
 10
332.3388497272499
 20
-166.3332371267293
 30
0.0
 10
332.0812943074696
 20
-167.5052895055618
 30
0.0
 10
331.6963897048579
 20
-168.7088183300004
 30
0.0
 10
331.1930545813129
 20
-169.9145154176299
 30
0.0
 10
330.5808896539791
 20
-171.0952326656279
 30
0.0
 10
329.8734643172508
 20
-172.2237277883705
 30
0.0
 10
329.0870752202837
 20
-173.2742066598936
 30
0.0
 10
328.2406024337884
 20
-174.2229490020318
 30
0.0
 10
327.3550055573453
 20
-175.0491250040531
 30
0.0
 10
326.452855890674
 20
-175.7355765162845
 30
0.0
 10
325.5578665487401
 20
-176.2694777998518
 30
0.0
 10
324.6936412766193
 20
-176.6438654213894
 30
0.0
 10
323.883712355073
 20
-176.8561414714272
 30
0.0
 10
323.1435134267657
 20
-176.9168342309465
 30
0.0
 10
322.4912355955182
 20
-176.8156225938492
 30
0.0
 10
322.0755222784256
 20
-176.6906619516212
 30
0.0
 10
321.8943413952201
 20
-176.5499808987203
 30
0.0
 10
321.8783736867031
 20
-176.537582493288
 30
0.0
  0
SPLINE
  5
139
330
1F
100
AcDbEntity
  8
0
  6
Continuous
 62
     7
370
    25
100
AcDbSpline
210
0.0
220
0.0
230
1.0
 70
     8
 71
     3
 72
    14
 73
    10
 74
     0
 42
0.00000001
 43
0.00000001
 40
0.0
 40
0.0
 40
0.0
 40
0.0
 40
0.0497803310260191
 40
0.2515460809320298
 40
0.4277046355514171
 40
0.6152365469701137
 40
0.7955769620302184
 40
0.9624198577146855
 40
0.9999999999999999
 40
0.9999999999999999
 40
0.9999999999999999
 40
0.9999999999999999
 10
349.4426376223796
 20
-98.21106344959284
 30
0.0
 10
349.4937158465837
 20
-98.23240136890584
 30
0.0
 10
349.7518203399586
 20
-98.34022447630191
 30
0.0
 10
350.1040057979565
 20
-98.67130264155618
 30
0.0
 10
350.5228872723678
 20
-99.23135223788994
 30
0.0
 10
350.835780979855
 20
-99.94262377006916
 30
0.0
 10
351.0377894807837
 20
-100.7909377774879
 30
0.0
 10
351.1017499484792
 20
-101.4884013892416
 30
0.0
 10
351.1050031631855
 20
-101.8827238736593
 30
0.0
 10
351.1056012184378
 20
-101.9552142114308
 30
0.0
  0
SPLINE
  5
13A
330
1F
100
AcDbEntity
  8
0
  6
Continuous
 62
     7
370
    25
100
AcDbSpline
210
0.0
220
0.0
230
1.0
 70
     8
 71
     3
 72
    25
 73
    21
 74
     0
 42
0.00000001
 43
0.00000001
 40
0.0
 40
0.0
 40
0.0
 40
0.0
 40
0.031087374913745
 40
0.0907852873530932
 40
0.1507040968075109
 40
0.2108334388599731
 40
0.2711402336252162
 40
0.3315630663185371
 40
0.3920305222459387
 40
0.4524567286145652
 40
0.5127519317552092
 40
0.5728414391005604
 40
0.6326591996644924
 40
0.6921676385348817
 40
0.7514033806207512
 40
0.810550764489976
 40
0.8699577179240423
 40
0.9305376937507134
 40
0.993878195980297
 40
1.0
 40
1.0
 40
1.0
 40
1.0
 10
351.1056012184378
 20
-101.9552142114308
 30
0.0
 10
351.1021674970245
 20
-102.1365329281122
 30
0.0
 10
351.0921399091032
 20
-102.6660427964134
 30
0.0
 10
350.9784600340416
 20
-103.6084800705568
 30
0.0
 10
350.7209046142614
 20
-104.7805324493894
 30
0.0
 10
350.3360000116497
 20
-105.9840612738279
 30
0.0
 10
349.8326648881048
 20
-107.1897583614574
 30
0.0
 10
349.2204999607709
 20
-108.3704756094554
 30
0.0
 10
348.5130746240426
 20
-109.498970732198
 30
0.0
 10
347.7266855270755
 20
-110.5494496037211
 30
0.0
 10
346.8802127405802
 20
-111.4981919458593
 30
0.0
 10
345.9946158641371
 20
-112.3243679478806
 30
0.0
 10
345.0924661974659
 20
-113.010819460112
 30
0.0
 10
344.1974768555319
 20
-113.5447207436793
 30
0.0
 10
343.3332515834111
 20
-113.919108365217
 30
0.0
 10
342.5233226618648
 20
-114.1313844152547
 30
0.0
 10
341.7831237335575
 20
-114.1920771747741
 30
0.0
 10
341.13084590231
 20
-114.0908655376768
 30
0.0
 10
340.7151325852174
 20
-113.9659048954489
 30
0.0
 10
340.5339517020118
 20
-113.825223842548
 30
0.0
 10
340.5179839934949
 20
-113.8128254371156
 30
0.0
  0
LWPOLYLINE
  5
13B
330
1F
100
AcDbEntity
  8
0
  6
Continuous
 62
     7
370
    25
100
AcDbPolyline
 90
      143
 70
   128
 43
0.0
 10
467.8162793371
 20
-86.3047925326
 10
467.7394565296
 20
-82.3400064493
 10
467.5091384913
 20
-78.4716793465
 10
467.1257760806
 20
-74.7073836562
 10
466.5901197475
 20
-71.054488164
 10
465.9032180643
 20
-67.5201435843
 10
465.0664156733
 20
-64.1112685626
 10
464.0813506546
 20
-60.8345361318
 10
462.9499513192
 20
-57.6963606496
 10
461.6744324343
 20
-54.7028852418
 10
460.2572908882
 20
-51.8599697772
 10
458.7013008019
 20
-49.1731793962
 10
457.0095080991
 20
-46.6477736172
 10
455.1852245434
 20
-44.2886960405
 10
453.2320212557
 20
-42.1005646714
 10
451.153721723
 20
-40.0876628798
 10
448.9543943142
 20
-38.2539310153
 10
446.6383443162
 20
-36.6029586944
 10
444.2101055054
 20
-35.1379777727
 10
441.6744312734
 20
-33.8618560193
 10
439.0362853216
 20
-32.7770915024
 10
436.3008319446
 20
-31.8858076995
 10
433.4734259208
 20
-31.1897493405
 10
430.5596020303
 20
-30.6902789924
 10
427.5650642202
 20
-30.3883743917
 10
424.4956744388
 20
-30.2846265309
 10
421.3574411608
 20
-30.3792385014
 10
418.1565076253
 20
-30.6720250957
 10
414.8991398098
 20
-31.1624131703
 10
411.591714165
 20
-31.8494427677
 10
408.2407051318
 20
-32.7317689949
 10
404.8526724677
 20
-33.8076646571
 10
401.4342484058
 20
-35.075023638
 10
397.9921246718
 20
-36.5313650228
 10
394.5330393844
 20
-38.1738379549
 10
391.0637638656
 20
-39.9992272164
 10
387.5910893851
 20
-42.003959522
 10
384.1218138663
 20
-44.1841105142
 10
380.662728579
 20
-46.5354124451
 10
377.2206048449
 20
-49.0532625305
 10
373.8021807831
 20
-51.7327319609
 10
370.414148119
 20
-54.5685755489
 10
367.0631390858
 20
-57.5552419976
 10
363.7557134409
 20
-60.6868847671
 10
360.4983456255
 20
-63.9573735196
 10
357.2974120899
 20
-67.3603061198
 10
354.159178812
 20
-70.8890211674
 10
351.0897890306
 20
-74.536611037
 10
348.0952512205
 20
-78.2959354
 10
345.1814273299
 20
-82.1596352025
 10
342.3540213061
 20
-86.1201470707
 10
339.6185679291
 20
-90.1697181167
 10
336.9804219773
 20
-94.3004211149
 10
334.4447477454
 20
-98.5041700202
 10
332.0165089346
 20
-102.7727357968
 10
329.7004589365
 20
-107.0977625267
 10
327.5011315278
 20
-111.470783767
 10
325.4228319951
 20
-115.8832391232
 10
323.4696287074
 20
-120.3264910067
 10
321.6453451517
 20
-124.7918415434
 10
319.9535524489
 20
-129.2705495999
 10
318.3975623626
 20
-133.7538478948
 10
316.9804208164
 20
-138.2329601612
 10
315.7049019316
 20
-142.6991183265
 10
314.5735025962
 20
-147.1435796763
 10
313.5884375774
 20
-151.5576439689
 10
312.7516351865
 20
-155.9326704661
 10
312.0647335033
 20
-160.260094848
 10
311.5290771702
 20
-164.5314459783
 10
311.1457147595
 20
-168.7383624866
 10
310.9153967212
 20
-172.8726091361
 10
310.8385739137
 20
-176.9260929449
 10
310.9153967212
 20
-180.8908790282
 10
311.1457147595
 20
-184.759206131
 10
311.5290771702
 20
-188.5235018213
 10
312.0647335033
 20
-192.1763973136
 10
312.7516351865
 20
-195.7107418933
 10
313.5884375774
 20
-199.119616915
 10
314.5735025962
 20
-202.3963493458
 10
315.7049019316
 20
-205.534524828
 10
316.9804208164
 20
-208.5280002357
 10
318.3975623626
 20
-211.3709157004
 10
319.9535524489
 20
-214.0577060814
 10
321.6453451517
 20
-216.5831118604
 10
323.4696287074
 20
-218.942189437
 10
325.4228319951
 20
-221.1303208061
 10
327.5011315278
 20
-223.1432225978
 10
329.7004589365
 20
-224.9769544622
 10
332.0165089346
 20
-226.6279267832
 10
334.4447477454
 20
-228.0929077049
 10
336.9804219773
 20
-229.3690294583
 10
339.6185679291
 20
-230.4537939752
 10
342.3540213061
 20
-231.345077778
 10
345.1814273299
 20
-232.041136137
 10
348.0952512205
 20
-232.5406064852
 10
351.0897890306
 20
-232.8425110859
 10
354.159178812
 20
-232.9462589467
 10
357.2974120899
 20
-232.8516469762
 10
360.4983456255
 20
-232.5588603819
 10
363.7557134409
 20
-232.0684723072
 10
367.0631390858
 20
-231.3814427099
 10
370.414148119
 20
-230.4991164826
 10
373.8021807831
 20
-229.4232208204
 10
377.2206048449
 20
-228.1558618396
 10
380.662728579
 20
-226.6995204548
 10
384.1218138663
 20
-225.0570475227
 10
387.5910893851
 20
-223.2316582612
 10
391.0637638656
 20
-221.2269259555
 10
394.5330393844
 20
-219.0467749633
 10
397.9921246718
 20
-216.6954730325
 10
401.4342484058
 20
-214.177622947
 10
404.8526724677
 20
-211.4981535167
 10
408.2407051318
 20
-208.6623099286
 10
411.591714165
 20
-205.67564348
 10
414.8991398098
 20
-202.5440007105
 10
418.1565076253
 20
-199.273511958
 10
421.3574411608
 20
-195.8705793577
 10
424.4956744388
 20
-192.3418643101
 10
427.5650642202
 20
-188.6942744406
 10
430.5596020303
 20
-184.9349500776
 10
433.4734259208
 20
-181.071250275
 10
436.3008319446
 20
-177.1107384068
 10
439.0362853216
 20
-173.0611673609
 10
441.6744312734
 20
-168.9304643627
 10
444.2101055054
 20
-164.7267154573
 10
446.6383443162
 20
-160.4581496807
 10
448.9543943142
 20
-156.1331229508
 10
451.153721723
 20
-151.7601017106
 10
453.2320212557
 20
-147.3476463544
 10
455.1852245434
 20
-142.9043944708
 10
457.0095080991
 20
-138.4390439341
 10
458.7013008019
 20
-133.9603358777
 10
460.2572908882
 20
-129.4770375828
 10
461.6744324343
 20
-124.9979253164
 10
462.9499513192
 20
-120.5317671511
 10
464.0813506546
 20
-116.0873058013
 10
465.0664156733
 20
-111.6732415087
 10
465.9032180643
 20
-107.2982150115
 10
466.5901197475
 20
-102.9707906295
 10
467.1257760806
 20
-98.6994394992
 10
467.5091384913
 20
-94.492522991
 10
467.7394565296
 20
-90.3582763415
 10
467.8162793371
 20
-86.3047925326
  0
ARC
  5
13C
330
1F
100
AcDbEntity
  8
0
  6
Continuous
 62
     7
370
    25
100
AcDbCircle
 10
352.9745059523
 20
-196.2248848261
 30
0.0
 40
37.86663182070677
100
AcDbArc
 50
225.3984860023
 51
255.3782884254
  0
ARC
  5
13D
330
1F
100
AcDbEntity
  8
0
  6
Continuous
 62
     7
370
    25
100
AcDbCircle
 10
427.0932075273
 20
-67.8308930725
 30
0.0
 40
37.87464350730568
100
AcDbArc
 50
44.68101571
 51
75.0385916889
  0
ARC
  5
13E
330
1F
100
AcDbEntity
  8
0
  6
Continuous
 62
     7
370
    25
100
AcDbCircle
 10
439.6346506448
 20
-75.4006032611
 30
0.0
 40
38.16366665827724
100
AcDbArc
 50
44.4838776759
 51
59.9281685243
  0
ARC
  5
13F
330
1F
100
AcDbEntity
  8
0
  6
Continuous
 62
     7
370
    25
100
AcDbCircle
 10
365.8030210114
 20
-203.2852031382
 30
0.0
 40
38.16927728399738
100
AcDbArc
 50
240.0842452137
 51
254.5771190837
  0
LWPOLYLINE
  5
140
330
1F
100
AcDbEntity
  8
0
  6
Continuous
 62
     7
370
    25
100
AcDbPolyline
 90
       43
 70
   128
 43
0.0
 10
332.7588841305
 20
-164.2717672117
 10
332.6799061453
 20
-165.5343511623
 10
332.4447364275
 20
-166.8599171146
 10
332.0586282799
 20
-168.2188541156
 10
331.5302067206
 20
-169.5808057582
 10
330.8712758139
 20
-170.9153482933
 10
330.0965549875
 20
-172.1926702459
 10
329.2233502245
 20
-173.3842383544
 10
328.2711674763
 20
-174.4634349562
 10
327.2612769322
 20
-175.4061525826
 10
326.2162378779
 20
-176.1913324795
 10
325.1593947593
 20
-176.8014350255
 10
324.114355705
 20
-177.2228315379
 10
323.1044651608
 20
-177.446108715
 10
322.1522824127
 20
-177.4662789136
 10
321.2790776496
 20
-177.2828915647
 10
320.5043568233
 20
-176.9000432388
 10
319.8454259166
 20
-176.3262861347
 10
319.3170043573
 20
-175.5744370381
 10
318.9308962097
 20
-174.6612910154
 10
318.6957264919
 20
-173.6072462398
 10
318.6167485067
 20
-172.4358483299
 10
318.6957264919
 20
-171.1732643793
 10
318.9308962097
 20
-169.847698427
 10
319.3170043573
 20
-168.4887614261
 10
319.8454259166
 20
-167.1268097834
 10
320.5043568233
 20
-165.7922672483
 10
321.2790776496
 20
-164.5149452957
 10
322.1522824127
 20
-163.3233771872
 10
323.1044651608
 20
-162.2441805854
 10
324.114355705
 20
-161.301462959
 10
325.1593947593
 20
-160.5162830622
 10
326.2162378779
 20
-159.9061805161
 10
327.2612769322
 20
-159.4847840037
 10
328.2711674763
 20
-159.2615068266
 10
329.2233502245
 20
-159.2413366281
 10
330.0965549875
 20
-159.4247239769
 10
330.8712758139
 20
-159.8075723028
 10
331.5302067206
 20
-160.3813294069
 10
332.0586282799
 20
-161.1331785035
 10
332.4447364275
 20
-162.0463245262
 10
332.6799061453
 20
-163.1003693018
 10
332.7588841305
 20
-164.2717672117
  0
LWPOLYLINE
  5
141
330
1F
100
AcDbEntity
  8
0
  6
Continuous
 62
     7
370
    25
100
AcDbPolyline
 90
       43
 70
   128
 43
0.0
 10
441.3984944372
 20
-153.5197942038
 10
441.3195164521
 20
-154.7823781545
 10
441.0843467343
 20
-156.1079441067
 10
440.6982385867
 20
-157.4668811077
 10
440.1698170274
 20
-158.8288327503
 10
439.5108861207
 20
-160.1633752854
 10
438.7361652943
 20
-161.4406972381
 10
437.8629605313
 20
-162.6322653466
 10
436.9107777831
 20
-163.7114619484
 10
435.9008872389
 20
-164.6541795747
 10
434.8558481847
 20
-165.4393594716
 10
433.799005066
 20
-166.0494620176
 10
432.7539660118
 20
-166.47085853
 10
431.7440754676
 20
-166.6941357071
 10
430.7918927195
 20
-166.7143059057
 10
429.9186879564
 20
-166.5309185568
 10
429.1439671301
 20
-166.1480702309
 10
428.4850362234
 20
-165.5743131268
 10
427.9566146641
 20
-164.8224640302
 10
427.5705065165
 20
-163.9093180076
 10
427.3353367987
 20
-162.855273232
 10
427.2563588135
 20
-161.6838753221
 10
427.3353367987
 20
-160.4212913714
 10
427.5705065165
 20
-159.0957254191
 10
427.9566146641
 20
-157.7367884182
 10
428.4850362234
 20
-156.3748367756
 10
429.1439671301
 20
-155.0402942405
 10
429.9186879564
 20
-153.7629722878
 10
430.7918927195
 20
-152.5714041793
 10
431.7440754676
 20
-151.4922075775
 10
432.7539660118
 20
-150.5494899512
 10
433.799005066
 20
-149.7643100543
 10
434.8558481847
 20
-149.1542075083
 10
435.9008872389
 20
-148.7328109958
 10
436.9107777831
 20
-148.5095338188
 10
437.8629605313
 20
-148.4893636202
 10
438.7361652943
 20
-148.672750969
 10
439.5108861207
 20
-149.055599295
 10
440.1698170274
 20
-149.629356399
 10
440.6982385867
 20
-150.3812054956
 10
441.0843467343
 20
-151.2943515183
 10
441.3195164521
 20
-152.3483962939
 10
441.3984944372
 20
-153.5197942038
  0
LWPOLYLINE
  5
142
330
1F
100
AcDbEntity
  8
0
  6
Continuous
 62
     7
370
    25
100
AcDbPolyline
 90
       43
 70
   128
 43
0.0
 10
441.3984944373
 20
-49.5911160678
 10
441.3195164521
 20
-50.8537000185
 10
441.0843467343
 20
-52.1792659707
 10
440.6982385867
 20
-53.5382029717
 10
440.1698170274
 20
-54.9001546143
 10
439.5108861207
 20
-56.2346971494
 10
438.7361652943
 20
-57.5120191021
 10
437.8629605313
 20
-58.7035872106
 10
436.9107777831
 20
-59.7827838124
 10
435.900887239
 20
-60.7255014387
 10
434.8558481847
 20
-61.5106813356
 10
433.7990050661
 20
-62.1207838816
 10
432.7539660118
 20
-62.542180394
 10
431.7440754676
 20
-62.7654575711
 10
430.7918927195
 20
-62.7856277697
 10
429.9186879564
 20
-62.6022404208
 10
429.1439671301
 20
-62.2193920949
 10
428.4850362234
 20
-61.6456349908
 10
427.9566146641
 20
-60.8937858942
 10
427.5705065165
 20
-59.9806398716
 10
427.3353367987
 20
-58.926595096
 10
427.2563588135
 20
-57.7551971861
 10
427.3353367987
 20
-56.4926132354
 10
427.5705065165
 20
-55.1670472831
 10
427.9566146641
 20
-53.8081102822
 10
428.4850362234
 20
-52.4461586396
 10
429.1439671301
 20
-51.1116161045
 10
429.9186879564
 20
-49.8342941518
 10
430.7918927195
 20
-48.6427260433
 10
431.7440754676
 20
-47.5635294415
 10
432.7539660118
 20
-46.6208118152
 10
433.7990050661
 20
-45.8356319183
 10
434.8558481847
 20
-45.2255293723
 10
435.900887239
 20
-44.8041328598
 10
436.9107777831
 20
-44.5808556828
 10
437.8629605313
 20
-44.5606854842
 10
438.7361652943
 20
-44.744072833
 10
439.5108861207
 20
-45.126921159
 10
440.1698170274
 20
-45.700678263
 10
440.6982385867
 20
-46.4525273596
 10
441.0843467343
 20
-47.3656733823
 10
441.3195164521
 20
-48.4197181579
 10
441.3984944373
 20
-49.5911160678
  0
LWPOLYLINE
  5
143
330
1F
100
AcDbEntity
  8
0
  6
Continuous
 62
     7
370
    25
100
AcDbPolyline
 90
       43
 70
   128
 43
0.0
 10
396.3984944373
 20
-54.04472911
 10
396.3195164521
 20
-55.3073130606
 10
396.0843467343
 20
-56.6328790129
 10
395.6982385867
 20
-57.9918160138
 10
395.1698170274
 20
-59.3537676564
 10
394.5108861207
 20
-60.6883101915
 10
393.7361652943
 20
-61.9656321442
 10
392.8629605313
 20
-63.1572002527
 10
391.9107777831
 20
-64.2363968545
 10
390.900887239
 20
-65.1791144808
 10
389.8558481847
 20
-65.9642943777
 10
388.7990050661
 20
-66.5743969237
 10
387.7539660118
 20
-66.9957934362
 10
386.7440754676
 20
-67.2190706132
 10
385.7918927195
 20
-67.2392408118
 10
384.9186879564
 20
-67.055853463
 10
384.1439671301
 20
-66.673005137
 10
383.4850362234
 20
-66.099248033
 10
382.9566146641
 20
-65.3473989364
 10
382.5705065165
 20
-64.4342529137
 10
382.3353367987
 20
-63.3802081381
 10
382.2563588135
 20
-62.2088102282
 10
382.3353367987
 20
-60.9462262775
 10
382.5705065165
 20
-59.6206603253
 10
382.9566146641
 20
-58.2617233243
 10
383.4850362234
 20
-56.8997716817
 10
384.1439671301
 20
-55.5652291466
 10
384.9186879564
 20
-54.2879071939
 10
385.7918927195
 20
-53.0963390854
 10
386.7440754676
 20
-52.0171424836
 10
387.7539660118
 20
-51.0744248573
 10
388.7990050661
 20
-50.2892449604
 10
389.8558481847
 20
-49.6791424144
 10
390.900887239
 20
-49.257745902
 10
391.9107777831
 20
-49.0344687249
 10
392.8629605313
 20
-49.0142985263
 10
393.7361652943
 20
-49.1976858752
 10
394.5108861207
 20
-49.5805342011
 10
395.1698170274
 20
-50.1542913052
 10
395.6982385867
 20
-50.9061404018
 10
396.0843467343
 20
-51.8192864245
 10
396.3195164521
 20
-52.8733312
 10
396.3984944373
 20
-54.04472911
  0
LWPOLYLINE
  5
144
330
1F
100
AcDbEntity
  8
0
  6
Continuous
 62
     7
370
    25
100
AcDbPolyline
 90
      109
 70
   128
 43
0.0
 10
435.2893674025
 20
-105.0821791045
 10
435.2116070732
 20
-108.2131148645
 10
434.9785892015
 20
-111.4232366942
 10
434.5911022462
 20
-114.7016825574
 10
434.0504573405
 20
-118.0373592312
 10
433.3584838555
 20
-121.4189798415
 10
432.5175232107
 20
-124.8351020546
 10
431.5304209504
 20
-128.2741667944
 10
430.4005171164
 20
-131.7245373543
 10
429.1316349456
 20
-135.1745387725
 10
427.7280679336
 20
-138.6124973364
 10
426.1945653068
 20
-142.0267800824
 10
424.5363159527
 20
-145.4058341584
 10
422.7589308622
 20
-148.7382259151
 10
420.8684241439
 20
-152.0126795937
 10
418.8711926741
 20
-155.2181154793
 10
416.7739944518
 20
-158.3436873916
 10
414.583925732
 20
-161.3788193846
 10
412.308397014
 20
-164.3132415325
 10
409.9551079666
 20
-167.1370246794
 10
407.5320213751
 20
-169.8406140372
 10
405.0473361975
 20
-172.4148615152
 10
402.5094598219
 20
-174.8510566748
 10
399.9269796187
 20
-177.1409562027
 10
397.3086338834
 20
-179.2768118039
 10
394.6632822691
 20
-181.251396419
 10
391.9998758083
 20
-183.0580286787
 10
389.3274266254
 20
-184.6905955114
 10
386.6549774425
 20
-186.1435728276
 10
383.9915709817
 20
-187.4120442121
 10
381.3462193674
 20
-188.4917175592
 10
378.7278736321
 20
-189.378939596
 10
376.1453934288
 20
-190.0707082441
 10
373.6075170533
 20
-190.5646827773
 10
371.1228318757
 20
-190.8591917422
 10
368.6997452842
 20
-190.9532386136
 10
366.3464562368
 20
-190.8465051667
 10
364.0709275188
 20
-190.5393525537
 10
361.880858799
 20
-190.0328200818
 10
359.7836605767
 20
-189.3286216965
 10
357.7864291069
 20
-188.4291401824
 10
355.8959223886
 20
-187.3374191
 10
354.1185372981
 20
-186.057152488
 10
352.460287944
 20
-184.5926723634
 10
350.9267853172
 20
-182.9489340632
 10
349.5232183052
 20
-181.1314994776
 10
348.2543361343
 20
-179.14651823
 10
347.1244323004
 20
-177.0007068685
 10
346.1373300401
 20
-174.7013261396
 10
345.2963693952
 20
-172.2561564197
 10
344.6043959103
 20
-169.6734713893
 10
344.0637510046
 20
-166.9620100368
 10
343.6762640493
 20
-164.1309470894
 10
343.4432461776
 20
-161.1898619678
 10
343.3654858483
 20
-158.148706373
 10
343.4432461776
 20
-155.017770613
 10
343.6762640493
 20
-151.8076487834
 10
344.0637510046
 20
-148.5292029201
 10
344.6043959103
 20
-145.1935262464
 10
345.2963693952
 20
-141.8119056361
 10
346.1373300401
 20
-138.3957834229
 10
347.1244323004
 20
-134.9567186832
 10
348.2543361343
 20
-131.5063481233
 10
349.5232183052
 20
-128.0563467051
 10
350.9267853172
 20
-124.6183881412
 10
352.460287944
 20
-121.2041053952
 10
354.1185372981
 20
-117.8250513192
 10
355.8959223886
 20
-114.4926595625
 10
357.7864291069
 20
-111.2182058839
 10
359.7836605767
 20
-108.0127699983
 10
361.880858799
 20
-104.887198086
 10
364.0709275188
 20
-101.852066093
 10
366.3464562368
 20
-98.9176439451
 10
368.6997452842
 20
-96.0938607981
 10
371.1228318757
 20
-93.3902714404
 10
373.6075170533
 20
-90.8160239624
 10
376.1453934288
 20
-88.3798288028
 10
378.7278736321
 20
-86.0899292748
 10
381.3462193674
 20
-83.9540736737
 10
383.9915709817
 20
-81.9794890586
 10
386.6549774425
 20
-80.1728567989
 10
389.3274266254
 20
-78.5402899662
 10
391.9998758083
 20
-77.08731265
 10
394.6632822691
 20
-75.8188412655
 10
397.3086338834
 20
-74.7391679184
 10
399.9269796187
 20
-73.8519458815
 10
402.5094598219
 20
-73.1601772334
 10
405.0473361975
 20
-72.6662027002
 10
407.5320213751
 20
-72.3716937354
 10
409.9551079666
 20
-72.277646864
 10
412.308397014
 20
-72.3843803109
 10
414.583925732
 20
-72.6915329239
 10
416.7739944518
 20
-73.1980653958
 10
418.8711926741
 20
-73.902263781
 10
420.8684241439
 20
-74.8017452952
 10
422.7589308622
 20
-75.8934663775
 10
424.5363159527
 20
-77.1737329895
 10
426.1945653068
 20
-78.6382131142
 10
427.7280679336
 20
-80.2819514144
 10
429.1316349456
 20
-82.0993859999
 10
430.4005171164
 20
-84.0843672476
 10
431.5304209504
 20
-86.2301786091
 10
432.5175232107
 20
-88.529559338
 10
433.3584838555
 20
-90.9747290579
 10
434.0504573405
 20
-93.5574140883
 10
434.5911022462
 20
-96.2688754407
 10
434.9785892015
 20
-99.0999383882
 10
435.2116070732
 20
-102.0410235098
 10
435.2893674025
 20
-105.0821791045
  0
LWPOLYLINE
  5
145
330
1F
100
AcDbEntity
  8
0
  6
Continuous
 62
     7
370
    25
100
AcDbPolyline
 90
       43
 70
   128
 43
0.0
 10
396.3984944372
 20
-201.0220752494
 10
396.3195164521
 20
-202.2846592
 10
396.0843467343
 20
-203.6102251523
 10
395.6982385867
 20
-204.9691621533
 10
395.1698170274
 20
-206.3311137959
 10
394.5108861207
 20
-207.665656331
 10
393.7361652943
 20
-208.9429782836
 10
392.8629605313
 20
-210.1345463921
 10
391.9107777831
 20
-211.2137429939
 10
390.9008872389
 20
-212.1564606203
 10
389.8558481847
 20
-212.9416405172
 10
388.799005066
 20
-213.5517430632
 10
387.7539660118
 20
-213.9731395756
 10
386.7440754676
 20
-214.1964167527
 10
385.7918927194
 20
-214.2165869513
 10
384.9186879564
 20
-214.0331996024
 10
384.1439671301
 20
-213.6503512765
 10
383.4850362234
 20
-213.0765941724
 10
382.9566146641
 20
-212.3247450758
 10
382.5705065165
 20
-211.4115990531
 10
382.3353367987
 20
-210.3575542775
 10
382.2563588135
 20
-209.1861563676
 10
382.3353367987
 20
-207.923572417
 10
382.5705065165
 20
-206.5980064647
 10
382.9566146641
 20
-205.2390694638
 10
383.4850362234
 20
-203.8771178211
 10
384.1439671301
 20
-202.542575286
 10
384.9186879564
 20
-201.2652533334
 10
385.7918927194
 20
-200.0736852249
 10
386.7440754676
 20
-198.9944886231
 10
387.7539660118
 20
-198.0517709967
 10
388.799005066
 20
-197.2665910999
 10
389.8558481847
 20
-196.6564885538
 10
390.9008872389
 20
-196.2350920414
 10
391.9107777831
 20
-196.0118148643
 10
392.8629605313
 20
-195.9916446658
 10
393.7361652943
 20
-196.1750320146
 10
394.5108861207
 20
-196.5578803405
 10
395.1698170274
 20
-197.1316374446
 10
395.6982385867
 20
-197.8834865412
 10
396.0843467343
 20
-198.7966325639
 10
396.3195164521
 20
-199.8506773395
 10
396.3984944372
 20
-201.0220752494
  0
LWPOLYLINE
  5
146
330
1F
100
AcDbEntity
  8
0
  6
Continuous
 62
     7
370
    25
100
AcDbPolyline
 90
       43
 70
   128
 43
0.0
 10
460.038104744
 20
-90.7950371477
 10
459.9591267589
 20
-92.0576210983
 10
459.7239570411
 20
-93.3831870506
 10
459.3378488935
 20
-94.7421240515
 10
458.8094273342
 20
-96.1040756941
 10
458.1504964275
 20
-97.4386182292
 10
457.3757756011
 20
-98.7159401819
 10
456.5025708381
 20
-99.9075082904
 10
455.5503880899
 20
-100.9867048922
 10
454.5404975457
 20
-101.9294225185
 10
453.4954584915
 20
-102.7146024154
 10
452.4386153728
 20
-103.3247049614
 10
451.3935763186
 20
-103.7461014739
 10
450.3836857744
 20
-103.9693786509
 10
449.4315030262
 20
-103.9895488495
 10
448.5582982632
 20
-103.8061615007
 10
447.7835774369
 20
-103.4233131747
 10
447.1246465302
 20
-102.8495560707
 10
446.5962249709
 20
-102.0977069741
 10
446.2101168233
 20
-101.1845609514
 10
445.9749471055
 20
-100.1305161758
 10
445.8959691203
 20
-98.9591182659
 10
445.9749471055
 20
-97.6965343152
 10
446.2101168233
 20
-96.370968363
 10
446.5962249709
 20
-95.012031362
 10
447.1246465302
 20
-93.6500797194
 10
447.7835774369
 20
-92.3155371843
 10
448.5582982632
 20
-91.0382152316
 10
449.4315030262
 20
-89.8466471231
 10
450.3836857744
 20
-88.7674505213
 10
451.3935763186
 20
-87.824732895
 10
452.4386153728
 20
-87.0395529981
 10
453.4954584915
 20
-86.4294504521
 10
454.5404975457
 20
-86.0080539397
 10
455.5503880899
 20
-85.7847767626
 10
456.5025708381
 20
-85.764606564
 10
457.3757756011
 20
-85.9479939129
 10
458.1504964275
 20
-86.3308422388
 10
458.8094273342
 20
-86.9045993429
 10
459.3378488935
 20
-87.6564484395
 10
459.7239570411
 20
-88.5695944622
 10
459.9591267589
 20
-89.6236392377
 10
460.038104744
 20
-90.7950371477
  0
LWPOLYLINE
  5
147
330
1F
100
AcDbEntity
  8
0
  6
Continuous
 62
     7
370
    25
100
AcDbPolyline
 90
       43
 70
   128
 43
0.0
 10
351.3984944372
 20
-205.4756882915
 10
351.3195164521
 20
-206.7382722422
 10
351.0843467343
 20
-208.0638381944
 10
350.6982385867
 20
-209.4227751954
 10
350.1698170274
 20
-210.784726838
 10
349.5108861207
 20
-212.1192693731
 10
348.7361652943
 20
-213.3965913258
 10
347.8629605313
 20
-214.5881594343
 10
346.9107777831
 20
-215.6673560361
 10
345.9008872389
 20
-216.6100736624
 10
344.8558481847
 20
-217.3952535593
 10
343.799005066
 20
-218.0053561053
 10
342.7539660118
 20
-218.4267526177
 10
341.7440754676
 20
-218.6500297948
 10
340.7918927194
 20
-218.6701999934
 10
339.9186879564
 20
-218.4868126445
 10
339.1439671301
 20
-218.1039643186
 10
338.4850362234
 20
-217.5302072145
 10
337.9566146641
 20
-216.7783581179
 10
337.5705065165
 20
-215.8652120952
 10
337.3353367987
 20
-214.8111673197
 10
337.2563588135
 20
-213.6397694097
 10
337.3353367987
 20
-212.3771854591
 10
337.5705065165
 20
-211.0516195068
 10
337.9566146641
 20
-209.6926825059
 10
338.4850362234
 20
-208.3307308633
 10
339.1439671301
 20
-206.9961883282
 10
339.9186879564
 20
-205.7188663755
 10
340.7918927194
 20
-204.527298267
 10
341.7440754676
 20
-203.4481016652
 10
342.7539660118
 20
-202.5053840389
 10
343.799005066
 20
-201.720204142
 10
344.8558481847
 20
-201.110101596
 10
345.9008872389
 20
-200.6887050835
 10
346.9107777831
 20
-200.4654279065
 10
347.8629605313
 20
-200.4452577079
 10
348.7361652943
 20
-200.6286450567
 10
349.5108861207
 20
-201.0114933827
 10
350.1698170274
 20
-201.5852504867
 10
350.6982385867
 20
-202.3370995833
 10
351.0843467343
 20
-203.250245606
 10
351.3195164521
 20
-204.3042903816
 10
351.3984944372
 20
-205.4756882915
  0
LWPOLYLINE
  5
148
330
1F
100
AcDbEntity
  8
0
  6
Continuous
 62
     7
370
    25
100
AcDbPolyline
 90
       43
 70
   128
 43
0.0
 10
351.3984944373
 20
-101.5470101555
 10
351.3195164521
 20
-102.8095941062
 10
351.0843467343
 20
-104.1351600584
 10
350.6982385867
 20
-105.4940970594
 10
350.1698170274
 20
-106.856048702
 10
349.5108861207
 20
-108.1905912371
 10
348.7361652943
 20
-109.4679131898
 10
347.8629605313
 20
-110.6594812983
 10
346.9107777831
 20
-111.7386779001
 10
345.900887239
 20
-112.6813955264
 10
344.8558481847
 20
-113.4665754233
 10
343.799005066
 20
-114.0766779693
 10
342.7539660118
 20
-114.4980744817
 10
341.7440754676
 20
-114.7213516588
 10
340.7918927195
 20
-114.7415218574
 10
339.9186879564
 20
-114.5581345085
 10
339.1439671301
 20
-114.1752861826
 10
338.4850362234
 20
-113.6015290785
 10
337.9566146641
 20
-112.8496799819
 10
337.5705065165
 20
-111.9365339592
 10
337.3353367987
 20
-110.8824891837
 10
337.2563588135
 20
-109.7110912737
 10
337.3353367987
 20
-108.4485073231
 10
337.5705065165
 20
-107.1229413708
 10
337.9566146641
 20
-105.7640043699
 10
338.4850362234
 20
-104.4020527273
 10
339.1439671301
 20
-103.0675101922
 10
339.9186879564
 20
-101.7901882395
 10
340.7918927195
 20
-100.598620131
 10
341.7440754676
 20
-99.5194235292
 10
342.7539660118
 20
-98.5767059029
 10
343.799005066
 20
-97.791526006
 10
344.8558481847
 20
-97.18142346
 10
345.900887239
 20
-96.7600269475
 10
346.9107777831
 20
-96.5367497705
 10
347.8629605313
 20
-96.5165795719
 10
348.7361652943
 20
-96.6999669207
 10
349.5108861207
 20
-97.0828152467
 10
350.1698170274
 20
-97.6565723507
 10
350.6982385867
 20
-98.4084214473
 10
351.0843467343
 20
-99.32156747
 10
351.3195164521
 20
-100.3756122456
 10
351.3984944373
 20
-101.5470101555
  0
LINE
  5
149
330
1F
100
AcDbEntity
  8
0
  6
Continuous
 62
     7
370
    25
100
AcDbLine
 10
439.5341677034
 20
-150.2155990574
 30
0.0
 11
439.4274344372
 21
-150.1568389544
 31
0.0
  0
ARC
  5
14A
330
1F
100
AcDbEntity
  8
0
  6
Continuous
 62
     7
370
    25
100
AcDbCircle
 10
411.1878344901
 20
-95.3776584109
 30
0.0
 40
21.68322096379899
100
AcDbArc
 50
46.4606922506
 51
75.3380781151
  0
ARC
  5
14B
330
1F
100
AcDbEntity
  8
0
  6
Continuous
 62
     7
370
    25
100
AcDbCircle
 10
368.8717554142
 20
-168.6867952488
 30
0.0
 40
21.66423645666119
100
AcDbArc
 50
226.5015958791
 51
255.3691461948
  0
LINE
  5
14C
330
1F
100
AcDbEntity
  8
0
  6
Continuous
 62
     7
370
    25
100
AcDbLine
 10
458.1737780102
 20
-87.4908420013
 30
0.0
 11
458.067044744
 21
-87.4320818982
 31
0.0
  0
LINE
  5
14D
330
1F
100
AcDbEntity
  8
0
  6
Continuous
 62
     7
370
    25
100
AcDbLine
 10
394.5341677034
 20
-197.717880103
 30
0.0
 11
394.4274344372
 21
-197.65912
 31
0.0
  0
LINE
  5
14E
330
1F
100
AcDbEntity
  8
0
  6
Continuous
 62
     7
370
    25
100
AcDbLine
 10
439.5341677034
 20
-46.2869209214
 30
0.0
 11
439.4274344372
 21
-46.2281608184
 31
0.0
  0
LINE
  5
14F
330
1F
100
AcDbEntity
  8
0
  6
Continuous
 62
     7
370
    25
100
AcDbLine
 10
349.5341677034
 20
-202.1714931451
 30
0.0
 11
349.4274344372
 21
-202.1127330421
 31
0.0
  0
LINE
  5
150
330
1F
100
AcDbEntity
  8
0
  6
Continuous
 62
     7
370
    25
100
AcDbLine
 10
394.5341677034
 20
-50.7405339636
 30
0.0
 11
394.4274344372
 21
-50.6817738605
 31
0.0
  0
LINE
  5
151
330
1F
100
AcDbEntity
  8
0
  6
Continuous
 62
     7
370
    25
100
AcDbLine
 10
330.8945573966
 20
-160.9675720653
 30
0.0
 11
330.7878241304
 21
-160.9088119623
 31
0.0
  0
LINE
  5
152
330
1F
100
AcDbEntity
  8
0
  6
Continuous
 62
     7
370
    25
100
AcDbLine
 10
349.5341677034
 20
-98.2428150091
 30
0.0
 11
349.4274344372
 21
-98.1840549061
 31
0.0
  0
LWPOLYLINE
  5
153
330
1F
100
AcDbEntity
  8
0
  6
Continuous
 62
     1
370
    25
100
AcDbPolyline
 90
       51
 70
   128
 43
0.0
 10
469.2304928995
 20
-86.3047925326
 10
469.1529779946
 20
-90.3947942136
 10
468.920585019
 20
-94.5662863285
 10
468.5337688929
 20
-98.8111029854
 10
467.9932868271
 20
-103.1209347565
 10
467.3001968404
 20
-107.4873449437
 10
466.4558556892
 20
-111.9017860941
 10
465.4619162108
 20
-116.3556167316
 10
464.3203240886
 20
-120.8401182738
 10
463.0333140426
 20
-125.3465120982
 10
461.6034054555
 20
-129.8659767274
 10
460.0333974405
 20
-134.389665097
 10
458.326363362
 20
-138.9087218747
 10
456.4856448194
 20
-143.4143007946
 10
454.5148451056
 20
-147.8975819744
 10
452.4178221537
 20
-152.3497891807
 10
450.1986809845
 20
-156.7622070087
 10
447.8617656711
 20
-161.1261979433
 10
445.4116508351
 20
-165.4332192675
 10
442.8531326911
 20
-169.6748397846
 10
440.1912196587
 20
-173.8427563233
 10
437.4311225575
 20
-177.9288099913
 10
434.5782444074
 20
-181.9250021466
 10
431.6381698512
 20
-185.8235100555
 10
428.6166542229
 20
-189.6167022055
 10
425.5196122814
 20
-193.2971532451
 10
422.3531066315
 20
-196.8576585183
 10
419.1233358569
 20
-200.291248169
 10
415.8366223855
 20
-203.5912007842
 10
412.4994001132
 20
-206.7510565516
 10
409.1182018094
 20
-209.7646299052
 10
405.6996463286
 20
-212.6260216336
 10
402.2504256535
 20
-215.3296304282
 10
398.7772917957
 20
-217.8701638478
 10
395.2870435779
 20
-220.2426486789
 10
391.7865133247
 20
-222.4424406711
 10
388.2825534885
 20
-224.4652336281
 10
384.7820232353
 20
-226.3070678379
 10
381.2917750174
 20
-227.9643378234
 10
377.8186411596
 20
-229.4337994009
 10
374.3694204846
 20
-230.7125760302
 10
370.9508650037
 20
-231.7981644461
 10
367.5696666999
 20
-232.6884395584
 10
364.2324444277
 20
-233.3816586115
 10
360.9457309562
 20
-233.8764645967
 10
357.7159601816
 20
-234.1718889081
 10
354.5494545318
 20
-234.2673532387
 10
351.4524125902
 20
-234.1626707125
 10
348.430896962
 20
-233.8580462505
 10
345.4908224058
 20
-233.3540761695
 10
343.4156032779
 20
-232.8651520891
  0
LWPOLYLINE
  5
154
330
1F
100
AcDbEntity
  8
0
  6
Continuous
 62
     1
370
    25
100
AcDbPolyline
 90
       16
 70
   128
 43
0.0
 10
454.0233098544
 20
-41.1989909727
 10
454.5148451056
 20
-41.7023283844
 10
456.4856448194
 20
-43.9101726487
 10
458.326363362
 20
-46.2905031765
 10
460.0333974405
 20
-48.8386603589
 10
461.6034054555
 20
-51.5496560587
 10
463.0333140426
 20
-54.4181833744
 10
464.3203240886
 20
-57.438627029
 10
465.4619162108
 20
-60.6050743624
 10
466.4558556892
 20
-63.9113269052
 10
467.3001968404
 20
-67.3509125127
 10
467.9932868271
 20
-70.9170980345
 10
468.5337688929
 20
-74.6029024952
 10
468.920585019
 20
-78.4011107593
 10
469.1529779946
 20
-82.3042876558
 10
469.2304928995
 20
-86.3047925326
  0
LWPOLYLINE
  5
155
330
1F
100
AcDbEntity
  8
0
  6
Continuous
 62
     1
370
    25
100
AcDbPolyline
 90
       16
 70
   128
 43
0.0
 10
481.9584149608
 20
-93.652465539
 10
481.8809000559
 20
-89.6519606622
 10
481.6485070804
 20
-85.7487837657
 10
481.2616909543
 20
-81.9505755016
 10
480.7212088884
 20
-78.2647710409
 10
480.0281189018
 20
-74.6985855191
 10
479.1837777505
 20
-71.2589999116
 10
478.1898382722
 20
-67.9527473688
 10
477.04824615
 20
-64.7863000354
 10
475.761236104
 20
-61.7658563808
 10
474.3313275169
 20
-58.8973290651
 10
472.7613195019
 20
-56.1863333653
 10
471.0542854234
 20
-53.6381761829
 10
469.2135668807
 20
-51.2578456551
 10
467.242767167
 20
-49.0500013908
 10
466.8624288657
 20
-48.6589962421
  0
LWPOLYLINE
  5
156
330
1F
100
AcDbEntity
  8
0
  6
Continuous
 62
     1
370
    25
100
AcDbPolyline
 90
       51
 70
   128
 43
0.0
 10
355.652241225
 20
-240.079977198
 10
358.2187444671
 20
-240.7017491759
 10
361.1588190233
 20
-241.2057192569
 10
364.1803346516
 20
-241.5103437189
 10
367.2773765931
 20
-241.6150262451
 10
370.443882243
 20
-241.5195619145
 10
373.6736530176
 20
-241.2241376031
 10
376.960366489
 20
-240.7293316179
 10
380.2975887613
 20
-240.0361125648
 10
383.6787870651
 20
-239.1458374526
 10
387.0973425459
 20
-238.0602490366
 10
390.546563221
 20
-236.7814724073
 10
394.0196970788
 20
-235.3120108298
 10
397.5099452966
 20
-233.6547408443
 10
401.0104755499
 20
-231.8129066345
 10
404.514435386
 20
-229.7901136775
 10
408.0149656392
 20
-227.5903216853
 10
411.5052138571
 20
-225.2178368542
 10
414.9783477149
 20
-222.6773034346
 10
418.4275683899
 20
-219.97369464
 10
421.8461238708
 20
-217.1123029116
 10
425.2273221746
 20
-214.098729558
 10
428.5645444468
 20
-210.9388737906
 10
431.8512579183
 20
-207.6389211754
 10
435.0810286929
 20
-204.2053315247
 10
438.2475343427
 20
-200.6448262515
 10
441.3445762843
 20
-196.9643752119
 10
444.3660919125
 20
-193.1711830619
 10
447.3061664687
 20
-189.272675153
 10
450.1590446189
 20
-185.2764829977
 10
452.91914172
 20
-181.1904293297
 10
455.5810547524
 20
-177.022512791
 10
458.1395728964
 20
-172.7808922739
 10
460.5896877325
 20
-168.4738709497
 10
462.9266030459
 20
-164.1098800151
 10
465.145744215
 20
-159.6974621871
 10
467.242767167
 20
-155.2452549808
 10
469.2135668807
 20
-150.761973801
 10
471.0542854234
 20
-146.2563948811
 10
472.7613195019
 20
-141.7373381034
 10
474.3313275169
 20
-137.2136497338
 10
475.761236104
 20
-132.6941851046
 10
477.04824615
 20
-128.1877912802
 10
478.1898382722
 20
-123.703289738
 10
479.1837777505
 20
-119.2494591005
 10
480.0281189018
 20
-114.8350179502
 10
480.7212088884
 20
-110.4686077629
 10
481.2616909543
 20
-106.1587759918
 10
481.6485070804
 20
-101.9139593349
 10
481.8809000559
 20
-97.74246722
 10
481.9584149608
 20
-93.652465539
  0
LWPOLYLINE
  5
157
330
1F
100
AcDbEntity
  8
0
  6
Continuous
 62
     1
370
    25
100
AcDbPolyline
 90
       21
 70
   128
 43
0.0
 10
439.4274344372
 20
-150.1568389544
 10
438.7751758466
 20
-149.9052533622
 10
437.9237112552
 20
-149.7942632329
 10
437.0011055166
 20
-149.8855727651
 10
436.0300762459
 20
-150.1769336152
 10
435.0345334066
 20
-150.6611715119
 10
434.0389905672
 20
-151.3263629112
 10
433.0679612965
 20
-152.1561285932
 10
432.1453555579
 20
-153.130036973
 10
431.2938909666
 20
-154.224107194
 10
430.5345334066
 20
-155.4113996164
 10
429.8859807812
 20
-156.6626791604
 10
429.3642026086
 20
-157.9471351708
 10
428.9820467989
 20
-159.2331400778
 10
428.7489232966
 20
-160.4890281725
 10
428.6705723759
 20
-161.6838753221
 10
428.7489232966
 20
-162.7882604241
 10
428.9820467989
 20
-163.7749898523
 10
429.3642026086
 20
-164.6197670532
 10
429.8859807812
 20
-165.3017908086
 10
430.5090948029
 20
-165.7894102553
  0
LWPOLYLINE
  5
158
330
1F
100
AcDbEntity
  8
0
  6
Continuous
 62
     1
370
    25
100
AcDbPolyline
 90
       50
 70
   128
 43
0.0
 10
416.6761841263
 20
-74.4005258701
 10
414.5519304216
 20
-73.9450579423
 10
412.277306568
 20
-73.6723284301
 10
409.9260072674
 20
-73.6007480005
 10
407.5061379357
 20
-73.730563406
 10
405.0260403637
 20
-74.061327146
 10
402.4942639616
 20
-74.5918990094
 10
399.9195362871
 20
-75.3204500051
 10
397.3107329599
 20
-76.2444686668
 10
394.6768470655
 20
-77.3607697108
 10
392.0269581541
 20
-78.6655050162
 10
389.3702009419
 20
-80.15417689
 10
386.7157338214
 20
-81.821653572
 10
384.0727072905
 20
-83.6621869245
 10
381.4502324094
 20
-85.6694322478
 10
378.8573493921
 20
-87.8364701515
 10
376.3029964435
 20
-90.1558304069
 10
373.7959789476
 20
-92.6195176989
 10
371.3449391128
 20
-95.2190391868
 10
368.9583261814
 20
-97.9454337816
 10
366.6443673024
 20
-100.7893030364
 10
364.4110391716
 20
-103.7408435447
 10
362.2660405335
 20
-106.7898807349
 10
360.216765643
 20
-109.9259039442
 10
358.270278775
 20
-113.1381026509
 10
356.4332898731
 20
-116.4154037406
 10
354.7121314185
 20
-119.7465096775
 10
353.1127366011
 20
-123.1199374495
 10
351.6406188659
 20
-126.524058152
 10
350.300852908
 20
-129.9471370759
 10
349.098057178
 20
-133.377374159
 10
348.036377962
 20
-136.8029446634
 10
347.1194750883
 20
-140.212039938
 10
346.3505093109
 20
-143.5929081251
 10
345.7321314142
 20
-146.9338946717
 10
345.266473075
 20
-150.223482505
 10
344.9551395139
 20
-153.4503317343
 10
344.7992039623
 20
-156.6033187418
 10
344.7992039623
 20
-159.6715745282
 10
344.9551395139
 20
-162.6445221801
 10
345.266473075
 20
-165.5119133311
 10
345.7321314142
 20
-168.2638634898
 10
346.3505093109
 20
-170.8908861141
 10
347.1194750883
 20
-173.3839253126
 10
348.036377962
 20
-175.7343870628
 10
349.098057178
 20
-177.9341688361
 10
350.300852908
 20
-179.975687529
 10
351.6406188659
 20
-181.8519056037
 10
353.1127366011
 20
-183.5563553478
 10
353.9595168326
 20
-184.4018925039
  0
LWPOLYLINE
  5
159
330
1F
100
AcDbEntity
  8
0
  6
Continuous
 62
     1
370
    25
100
AcDbPolyline
 90
       49
 70
   128
 43
0.0
 10
364.9842832044
 20
-189.9523328738
 10
364.3685409273
 20
-189.1995786101
 10
363.0287749693
 20
-187.3233605354
 10
361.8259792394
 20
-185.2818418425
 10
360.7643000234
 20
-183.0820600692
 10
359.8473971496
 20
-180.731598319
 10
359.0784313723
 20
-178.2385591205
 10
358.4600534756
 20
-175.6115364963
 10
357.9943951363
 20
-172.8595863375
 10
357.6830615753
 20
-169.9921951865
 10
357.5271260236
 20
-167.0192475346
 10
357.5271260236
 20
-163.9509917482
 10
357.6830615753
 20
-160.7980047407
 10
357.9943951363
 20
-157.5711555114
 10
358.4600534756
 20
-154.2815676781
 10
359.0784313723
 20
-150.9405811315
 10
359.8473971496
 20
-147.5597129444
 10
360.7643000234
 20
-144.1506176698
 10
361.8259792394
 20
-140.7250471654
 10
363.0287749693
 20
-137.2948100823
 10
364.3685409273
 20
-133.8717311584
 10
365.8406586624
 20
-130.4676104559
 10
367.4400534799
 20
-127.0941826839
 10
369.1612119345
 20
-123.763076747
 10
370.9982008364
 20
-120.4857756573
 10
372.9446877043
 20
-117.2735769506
 10
374.9939625949
 20
-114.1375537413
 10
377.1389612329
 20
-111.0885165511
 10
379.3722893638
 20
-108.1369760429
 10
381.6862482427
 20
-105.293106788
 10
384.0728611742
 20
-102.5667121932
 10
386.5239010089
 20
-99.9671907053
 10
389.0309185049
 20
-97.5035034133
 10
391.5852714534
 20
-95.1841431579
 10
394.1781544707
 20
-93.0171052542
 10
396.8006293519
 20
-91.0098599309
 10
399.4436558828
 20
-89.1693265784
 10
402.0981230033
 20
-87.5018498964
 10
404.7548802155
 20
-86.0131780226
 10
407.4047691268
 20
-84.7084427172
 10
410.0386550213
 20
-83.5921416732
 10
412.6474583485
 20
-82.6681230115
 10
415.222186023
 20
-81.9395720158
 10
417.7539624251
 20
-81.4090001524
 10
420.2340599971
 20
-81.0782364124
 10
422.6539293288
 20
-80.9484210069
 10
425.0052286293
 20
-81.0200014365
 10
427.279852483
 20
-81.2927309487
 10
427.8379523994
 20
-81.3926973471
  0
LWPOLYLINE
  5
15A
330
1F
100
AcDbEntity
  8
0
  6
Continuous
 62
     1
370
    25
100
AcDbPolyline
 90
       21
 70
   128
 43
0.0
 10
458.067044744
 20
-87.4320818982
 10
457.4147861534
 20
-87.180496306
 10
456.563321562
 20
-87.0695061767
 10
455.6407158234
 20
-87.1608157089
 10
454.6696865527
 20
-87.452176559
 10
453.6741437134
 20
-87.9364144557
 10
452.678600874
 20
-88.601605855
 10
451.7075716033
 20
-89.431371537
 10
450.7849658647
 20
-90.4052799168
 10
449.9335012734
 20
-91.4993501378
 10
449.1741437134
 20
-92.6866425603
 10
448.525591088
 20
-93.9379221042
 10
448.0038129153
 20
-95.2223781146
 10
447.6216571057
 20
-96.5083830216
 10
447.3885336034
 20
-97.7642711163
 10
447.3101826827
 20
-98.9591182659
 10
447.3885336034
 20
-100.063503368
 10
447.6216571057
 20
-101.0502327961
 10
448.0038129153
 20
-101.895009997
 10
448.525591088
 20
-102.5770337524
 10
449.1487051097
 20
-103.0646531991
  0
LWPOLYLINE
  5
15B
330
1F
100
AcDbEntity
  8
0
  6
Continuous
 62
     1
370
    25
100
AcDbPolyline
 90
       21
 70
   128
 43
0.0
 10
394.4274344372
 20
-197.65912
 10
393.7751758466
 20
-197.4075344078
 10
392.9237112552
 20
-197.2965442785
 10
392.0011055166
 20
-197.3878538107
 10
391.0300762459
 20
-197.6792146607
 10
390.0345334066
 20
-198.1634525574
 10
389.0389905672
 20
-198.8286439568
 10
388.0679612965
 20
-199.6584096388
 10
387.1453555579
 20
-200.6323180186
 10
386.2938909666
 20
-201.7263882396
 10
385.5345334066
 20
-202.913680662
 10
384.8859807812
 20
-204.164960206
 10
384.3642026086
 20
-205.4494162164
 10
383.9820467989
 20
-206.7354211233
 10
383.7489232966
 20
-207.9913092181
 10
383.6705723759
 20
-209.1861563676
 10
383.7489232966
 20
-210.2905414697
 10
383.9820467989
 20
-211.2772708979
 10
384.3642026086
 20
-212.1220480988
 10
384.8859807812
 20
-212.8040718542
 10
385.5090948029
 20
-213.2916913008
  0
LWPOLYLINE
  5
15C
330
1F
100
AcDbEntity
  8
0
  6
Continuous
 62
     1
370
    25
100
AcDbPolyline
 90
       21
 70
   128
 43
0.0
 10
439.4274344372
 20
-46.2281608184
 10
438.7751758466
 20
-45.9765752262
 10
437.9237112552
 20
-45.8655850969
 10
437.0011055166
 20
-45.9568946291
 10
436.0300762459
 20
-46.2482554791
 10
435.0345334066
 20
-46.7324933759
 10
434.0389905672
 20
-47.3976847752
 10
433.0679612966
 20
-48.2274504572
 10
432.1453555579
 20
-49.201358837
 10
431.2938909666
 20
-50.295429058
 10
430.5345334066
 20
-51.4827214804
 10
429.8859807812
 20
-52.7340010244
 10
429.3642026086
 20
-54.0184570348
 10
428.9820467989
 20
-55.3044619418
 10
428.7489232966
 20
-56.5603500365
 10
428.6705723759
 20
-57.7551971861
 10
428.7489232966
 20
-58.8595822881
 10
428.9820467989
 20
-59.8463117163
 10
429.3642026086
 20
-60.6910889172
 10
429.8859807812
 20
-61.3731126726
 10
430.5090948029
 20
-61.8607321193
  0
LWPOLYLINE
  5
15D
330
1F
100
AcDbEntity
  8
0
  6
Continuous
 62
     1
370
    25
100
AcDbPolyline
 90
       21
 70
   128
 43
0.0
 10
349.4274344372
 20
-202.1127330421
 10
348.7751758466
 20
-201.8611474499
 10
347.9237112552
 20
-201.7501573206
 10
347.0011055166
 20
-201.8414668528
 10
346.0300762459
 20
-202.1328277028
 10
345.0345334066
 20
-202.6170655996
 10
344.0389905672
 20
-203.2822569989
 10
343.0679612965
 20
-204.1120226809
 10
342.1453555579
 20
-205.0859310607
 10
341.2938909666
 20
-206.1800012817
 10
340.5345334066
 20
-207.3672937041
 10
339.8859807812
 20
-208.6185732481
 10
339.3642026086
 20
-209.9030292585
 10
338.9820467989
 20
-211.1890341655
 10
338.7489232966
 20
-212.4449222602
 10
338.6705723759
 20
-213.6397694097
 10
338.7489232966
 20
-214.7441545118
 10
338.9820467989
 20
-215.73088394
 10
339.3642026086
 20
-216.5756611409
 10
339.8859807812
 20
-217.2576848963
 10
340.5090948029
 20
-217.745304343
  0
LWPOLYLINE
  5
15E
330
1F
100
AcDbEntity
  8
0
  6
Continuous
 62
     1
370
    25
100
AcDbPolyline
 90
       21
 70
   128
 43
0.0
 10
394.4274344372
 20
-50.6817738605
 10
393.7751758466
 20
-50.4301882683
 10
392.9237112552
 20
-50.319198139
 10
392.0011055166
 20
-50.4105076712
 10
391.0300762459
 20
-50.7018685213
 10
390.0345334066
 20
-51.186106418
 10
389.0389905672
 20
-51.8512978173
 10
388.0679612966
 20
-52.6810634993
 10
387.1453555579
 20
-53.6549718791
 10
386.2938909666
 20
-54.7490421001
 10
385.5345334066
 20
-55.9363345226
 10
384.8859807812
 20
-57.1876140665
 10
384.3642026086
 20
-58.4720700769
 10
383.9820467989
 20
-59.7580749839
 10
383.7489232966
 20
-61.0139630786
 10
383.6705723759
 20
-62.2088102282
 10
383.7489232966
 20
-63.3131953303
 10
383.9820467989
 20
-64.2999247584
 10
384.3642026086
 20
-65.1447019593
 10
384.8859807812
 20
-65.8267257147
 10
385.5090948029
 20
-66.3143451614
  0
LWPOLYLINE
  5
15F
330
1F
100
AcDbEntity
  8
0
  6
Continuous
 62
     1
370
    25
100
AcDbPolyline
 90
       21
 70
   128
 43
0.0
 10
330.7878241304
 20
-160.9088119623
 10
330.1355655398
 20
-160.6572263701
 10
329.2841009484
 20
-160.5462362408
 10
328.3614952098
 20
-160.637545773
 10
327.3904659392
 20
-160.928906623
 10
326.3949230998
 20
-161.4131445197
 10
325.3993802604
 20
-162.0783359191
 10
324.4283509898
 20
-162.9081016011
 10
323.5057452511
 20
-163.8820099809
 10
322.6542806598
 20
-164.9760802019
 10
321.8949230998
 20
-166.1633726243
 10
321.2463704744
 20
-167.4146521683
 10
320.7245923018
 20
-168.6991081787
 10
320.3424364921
 20
-169.9851130856
 10
320.1093129898
 20
-171.2410011804
 10
320.0309620691
 20
-172.4358483299
 10
320.1093129898
 20
-173.540233432
 10
320.3424364921
 20
-174.5269628602
 10
320.7245923018
 20
-175.3717400611
 10
321.2463704744
 20
-176.0537638165
 10
321.8694844961
 20
-176.5413832631
  0
LWPOLYLINE
  5
160
330
1F
100
AcDbEntity
  8
0
  6
Continuous
 62
     1
370
    25
100
AcDbPolyline
 90
       21
 70
   128
 43
0.0
 10
349.4274344372
 20
-98.1840549061
 10
348.7751758466
 20
-97.9324693139
 10
347.9237112552
 20
-97.8214791846
 10
347.0011055166
 20
-97.9127887168
 10
346.0300762459
 20
-98.2041495668
 10
345.0345334066
 20
-98.6883874636
 10
344.0389905672
 20
-99.3535788629
 10
343.0679612966
 20
-100.1833445449
 10
342.1453555579
 20
-101.1572529247
 10
341.2938909666
 20
-102.2513231457
 10
340.5345334066
 20
-103.4386155681
 10
339.8859807812
 20
-104.6898951121
 10
339.3642026086
 20
-105.9743511225
 10
338.9820467989
 20
-107.2603560295
 10
338.7489232966
 20
-108.5162441242
 10
338.6705723759
 20
-109.7110912737
 10
338.7489232966
 20
-110.8154763758
 10
338.9820467989
 20
-111.802205804
 10
339.3642026086
 20
-112.6469830049
 10
339.8859807812
 20
-113.3290067603
 10
340.5090948029
 20
-113.816626207
  0
ENDSEC
  0
SECTION
  2
OBJECTS
  0
DICTIONARY
  5
C
330
0
100
AcDbDictionary
281
     1
  3
ACAD_GROUP
350
D
  3
ACAD_LAYOUT
350
1A
  3
ACAD_MLINESTYLE
350
17
  3
ACAD_PLOTSETTINGS
350
19
  3
ACAD_PLOTSTYLENAME
350
E
  3
ACAD_SCALELIST
350
47
  3
DWGPROPS
350
161
  0
DICTIONARY
  5
D
102
{ACAD_REACTORS
330
C
102
}
330
C
100
AcDbDictionary
281
     1
  0
DICTIONARY
  5
1A
102
{ACAD_REACTORS
330
C
102
}
330
C
100
AcDbDictionary
281
     1
  3
Layout1
350
1E
  3
Layout2
350
26
  3
Model
350
22
  0
DICTIONARY
  5
17
102
{ACAD_REACTORS
330
C
102
}
330
C
100
AcDbDictionary
281
     1
  3
Standard
350
18
  0
DICTIONARY
  5
19
102
{ACAD_REACTORS
330
C
102
}
330
C
100
AcDbDictionary
281
     1
  0
ACDBDICTIONARYWDFLT
  5
E
102
{ACAD_REACTORS
330
C
102
}
330
C
100
AcDbDictionary
281
     1
  3
Normal
350
F
100
AcDbDictionaryWithDefault
340
F
  0
DICTIONARY
  5
47
102
{ACAD_REACTORS
330
C
102
}
330
C
100
AcDbDictionary
281
     1
  3
A0
350
48
  3
A1
350
49
  3
A2
350
4A
  3
A3
350
4B
  3
A4
350
4C
  3
A5
350
4D
  3
A6
350
4E
  3
A7
350
4F
  3
A8
350
50
  3
A9
350
51
  3
B0
350
52
  3
B1
350
53
  3
B2
350
54
  3
B3
350
55
  3
B4
350
56
  3
B5
350
57
  3
B6
350
58
  3
B7
350
59
  3
B8
350
5A
  3
B9
350
5B
  3
C0
350
5C
  3
C1
350
5D
  3
C2
350
5E
  3
C3
350
5F
  3
C4
350
60
  3
C5
350
61
  3
C6
350
62
  3
C7
350
63
  3
C8
350
64
  3
C9
350
65
  3
D0
350
66
  3
D1
350
67
  3
D2
350
68
  0
XRECORD
  5
161
102
{ACAD_REACTORS
330
C
102
}
330
C
100
AcDbXrecord
280
     1
  1
DWGPROPS COOKIE
  2

  3

  4

  6

  7

  8
b.kav
  9

300
=
301
=
302
=
303
=
304
=
305
=
306
=
307
=
308
=
309
=
 40
0.0
 41
2459741.467459132
 42
2459741.467461088
  1

 90
        0
  0
LAYOUT
  5
1E
102
{ACAD_REACTORS
330
1A
102
}
330
1A
100
AcDbPlotSettings
  1

  2
none_device
  4

  6

 40
0.0
 41
0.0
 42
0.0
 43
0.0
 44
0.0
 45
0.0
 46
0.0
 47
0.0
 48
0.0
 49
0.0
140
0.0
141
0.0
142
1.0
143
1.0
 70
   688
 72
     1
 73
     0
 74
     5
  7

 75
    16
147
1.0
148
0.0
149
0.0
100
AcDbLayout
  1
Layout1
 70
     1
 71
     1
 10
0.0
 20
0.0
 11
420.0
 21
297.0
 12
0.0
 22
0.0
 32
0.0
 14
1.0000000000E+20
 24
1.0000000000E+20
 34
1.0000000000E+20
 15
-1.0000000000E+20
 25
-1.0000000000E+20
 35
-1.0000000000E+20
146
0.0
 13
0.0
 23
0.0
 33
0.0
 16
1.0
 26
0.0
 36
0.0
 17
0.0
 27
1.0
 37
0.0
 76
     0
330
1B
  0
LAYOUT
  5
26
102
{ACAD_REACTORS
330
1A
102
}
330
1A
100
AcDbPlotSettings
  1

  2
none_device
  4

  6

 40
0.0
 41
0.0
 42
0.0
 43
0.0
 44
0.0
 45
0.0
 46
0.0
 47
0.0
 48
0.0
 49
0.0
140
0.0
141
0.0
142
1.0
143
1.0
 70
   688
 72
     1
 73
     0
 74
     5
  7

 75
    16
147
1.0
148
0.0
149
0.0
100
AcDbLayout
  1
Layout2
 70
     1
 71
     2
 10
0.0
 20
0.0
 11
0.0
 21
0.0
 12
0.0
 22
0.0
 32
0.0
 14
0.0
 24
0.0
 34
0.0
 15
0.0
 25
0.0
 35
0.0
146
0.0
 13
0.0
 23
0.0
 33
0.0
 16
1.0
 26
0.0
 36
0.0
 17
0.0
 27
1.0
 37
0.0
 76
     0
330
23
  0
LAYOUT
  5
22
102
{ACAD_REACTORS
330
1A
102
}
330
1A
100
AcDbPlotSettings
  1

  2
none_device
  4
Letter_(8.50_x_11.00_Inches)
  6

 40
6.35
 41
6.35
 42
6.35000508
 43
6.35000508
 44
215.9
 45
279.4
 46
0.0
 47
0.0
 48
0.0
 49
0.0
140
0.0
141
0.0
142
1.0
143
1.0
 70
  1712
 72
     1
 73
     0
 74
     0
  7

 75
     0
147
1.0
148
0.0
149
0.0
100
AcDbLayout
  1
Model
 70
     1
 71
     0
 10
0.0
 20
0.0
 11
279.4
 21
215.9
 12
0.0
 22
0.0
 32
0.0
 14
0.0
 24
0.0
 34
0.0
 15
279.4
 25
215.9
 35
0.0
146
0.0
 13
0.0
 23
0.0
 33
0.0
 16
1.0
 26
0.0
 36
0.0
 17
0.0
 27
1.0
 37
0.0
 76
     0
330
1F
331
29
  0
MLINESTYLE
  5
18
102
{ACAD_REACTORS
330
17
102
}
330
17
100
AcDbMlineStyle
  2
Standard
 70
     0
  3

 62
   256
 51
90.0
 52
90.0
 71
     2
 49
0.5
 62
   256
  6
BYLAYER
 49
-0.5
 62
   256
  6
BYLAYER
  0
ACDBPLACEHOLDER
  5
F
102
{ACAD_REACTORS
330
E
102
}
330
E
  0
SCALE
  5
48
102
{ACAD_REACTORS
330
47
102
}
330
47
100
AcDbScale
 70
     0
300
1:1
140
1.0
141
1.0
290
     1
  0
SCALE
  5
49
102
{ACAD_REACTORS
330
47
102
}
330
47
100
AcDbScale
 70
     0
300
1:2
140
1.0
141
2.0
290
     0
  0
SCALE
  5
4A
102
{ACAD_REACTORS
330
47
102
}
330
47
100
AcDbScale
 70
     0
300
1:4
140
1.0
141
4.0
290
     0
  0
SCALE
  5
4B
102
{ACAD_REACTORS
330
47
102
}
330
47
100
AcDbScale
 70
     0
300
1:5
140
1.0
141
5.0
290
     0
  0
SCALE
  5
4C
102
{ACAD_REACTORS
330
47
102
}
330
47
100
AcDbScale
 70
     0
300
1:8
140
1.0
141
8.0
290
     0
  0
SCALE
  5
4D
102
{ACAD_REACTORS
330
47
102
}
330
47
100
AcDbScale
 70
     0
300
1:10
140
1.0
141
10.0
290
     0
  0
SCALE
  5
4E
102
{ACAD_REACTORS
330
47
102
}
330
47
100
AcDbScale
 70
     0
300
1:16
140
1.0
141
16.0
290
     0
  0
SCALE
  5
4F
102
{ACAD_REACTORS
330
47
102
}
330
47
100
AcDbScale
 70
     0
300
1:20
140
1.0
141
20.0
290
     0
  0
SCALE
  5
50
102
{ACAD_REACTORS
330
47
102
}
330
47
100
AcDbScale
 70
     0
300
1:30
140
1.0
141
30.0
290
     0
  0
SCALE
  5
51
102
{ACAD_REACTORS
330
47
102
}
330
47
100
AcDbScale
 70
     0
300
1:40
140
1.0
141
40.0
290
     0
  0
SCALE
  5
52
102
{ACAD_REACTORS
330
47
102
}
330
47
100
AcDbScale
 70
     0
300
1:50
140
1.0
141
50.0
290
     0
  0
SCALE
  5
53
102
{ACAD_REACTORS
330
47
102
}
330
47
100
AcDbScale
 70
     0
300
1:100
140
1.0
141
100.0
290
     0
  0
SCALE
  5
54
102
{ACAD_REACTORS
330
47
102
}
330
47
100
AcDbScale
 70
     0
300
2:1
140
2.0
141
1.0
290
     0
  0
SCALE
  5
55
102
{ACAD_REACTORS
330
47
102
}
330
47
100
AcDbScale
 70
     0
300
4:1
140
4.0
141
1.0
290
     0
  0
SCALE
  5
56
102
{ACAD_REACTORS
330
47
102
}
330
47
100
AcDbScale
 70
     0
300
8:1
140
8.0
141
1.0
290
     0
  0
SCALE
  5
57
102
{ACAD_REACTORS
330
47
102
}
330
47
100
AcDbScale
 70
     0
300
10:1
140
10.0
141
1.0
290
     0
  0
SCALE
  5
58
102
{ACAD_REACTORS
330
47
102
}
330
47
100
AcDbScale
 70
     0
300
100:1
140
100.0
141
1.0
290
     0
  0
SCALE
  5
59
102
{ACAD_REACTORS
330
47
102
}
330
47
100
AcDbScale
 70
     0
300
1/128" = 1'-0"
140
0.0078125
141
12.0
290
     0
  0
SCALE
  5
5A
102
{ACAD_REACTORS
330
47
102
}
330
47
100
AcDbScale
 70
     0
300
1/64" = 1'-0"
140
0.015625
141
12.0
290
     0
  0
SCALE
  5
5B
102
{ACAD_REACTORS
330
47
102
}
330
47
100
AcDbScale
 70
     0
300
1/32" = 1'-0"
140
0.03125
141
12.0
290
     0
  0
SCALE
  5
5C
102
{ACAD_REACTORS
330
47
102
}
330
47
100
AcDbScale
 70
     0
300
1/16" = 1'-0"
140
0.0625
141
12.0
290
     0
  0
SCALE
  5
5D
102
{ACAD_REACTORS
330
47
102
}
330
47
100
AcDbScale
 70
     0
300
3/32" = 1'-0"
140
0.09375
141
12.0
290
     0
  0
SCALE
  5
5E
102
{ACAD_REACTORS
330
47
102
}
330
47
100
AcDbScale
 70
     0
300
1/8" = 1'-0"
140
0.125
141
12.0
290
     0
  0
SCALE
  5
5F
102
{ACAD_REACTORS
330
47
102
}
330
47
100
AcDbScale
 70
     0
300
3/16" = 1'-0"
140
0.1875
141
12.0
290
     0
  0
SCALE
  5
60
102
{ACAD_REACTORS
330
47
102
}
330
47
100
AcDbScale
 70
     0
300
1/4" = 1'-0"
140
0.25
141
12.0
290
     0
  0
SCALE
  5
61
102
{ACAD_REACTORS
330
47
102
}
330
47
100
AcDbScale
 70
     0
300
3/8" = 1'-0"
140
0.375
141
12.0
290
     0
  0
SCALE
  5
62
102
{ACAD_REACTORS
330
47
102
}
330
47
100
AcDbScale
 70
     0
300
1/2" = 1'-0"
140
0.5
141
12.0
290
     0
  0
SCALE
  5
63
102
{ACAD_REACTORS
330
47
102
}
330
47
100
AcDbScale
 70
     0
300
3/4" = 1'-0"
140
0.75
141
12.0
290
     0
  0
SCALE
  5
64
102
{ACAD_REACTORS
330
47
102
}
330
47
100
AcDbScale
 70
     0
300
1" = 1'-0"
140
1.0
141
12.0
290
     0
  0
SCALE
  5
65
102
{ACAD_REACTORS
330
47
102
}
330
47
100
AcDbScale
 70
     0
300
1-1/2" = 1'-0"
140
1.5
141
12.0
290
     0
  0
SCALE
  5
66
102
{ACAD_REACTORS
330
47
102
}
330
47
100
AcDbScale
 70
     0
300
3" = 1'-0"
140
3.0
141
12.0
290
     0
  0
SCALE
  5
67
102
{ACAD_REACTORS
330
47
102
}
330
47
100
AcDbScale
 70
     0
300
6" = 1'-0"
140
6.0
141
12.0
290
     0
  0
SCALE
  5
68
102
{ACAD_REACTORS
330
47
102
}
330
47
100
AcDbScale
 70
     0
300
1'-0" = 1'-0"
140
12.0
141
12.0
290
     0
  0
ENDSEC
  0
EOF
